  0
SECTION
  2
HEADER
  9
$ACADVER
  1
AC1015
  9
$ACADMAINTVER
 70
    20
  9
$DWGCODEPAGE
  3
ANSI_950
  9
$INSBASE
 10
0.0
 20
0.0
 30
0.0
  9
$EXTMIN
 10
-37.442139
 20
-33.197311
 30
0.0
  9
$EXTMAX
 10
150.43558
 20
134.87866
 30
0.0
  9
$LIMMIN
 10
0.0
 20
0.0
  9
$LIMMAX
 10
12.0
 20
9.0
  9
$ORTHOMODE
 70
     0
  9
$REGENMODE
 70
     1
  9
$FILLMODE
 70
     1
  9
$QTEXTMODE
 70
     0
  9
$MIRRTEXT
 70
     0
  9
$LTSCALE
 40
1.0
  9
$ATTMODE
 70
     1
  9
$TEXTSIZE
 40
0.0
  9
$TRACEWID
 40
0.05
  9
$TEXTSTYLE
  7
STANDARD
  9
$CLAYER
  8
0
  9
$CELTYPE
  6
Continuous
  9
$CECOLOR
 62
   256
  9
$CELTSCALE
 40
1.0
  9
$DISPSILH
 70
     0
  9
$DIMSCALE
 40
1.0
  9
$DIMASZ
 40
0.18
  9
$DIMEXO
 40
0.0625
  9
$DIMDLI
 40
0.38
  9
$DIMRND
 40
0.0
  9
$DIMDLE
 40
0.0
  9
$DIMEXE
 40
0.18
  9
$DIMTP
 40
0.0
  9
$DIMTM
 40
0.0
  9
$DIMTXT
 40
0.18
  9
$DIMCEN
 40
0.09
  9
$DIMTSZ
 40
0.0
  9
$DIMTOL
 70
     0
  9
$DIMLIM
 70
     0
  9
$DIMTIH
 70
     1
  9
$DIMTOH
 70
     1
  9
$DIMSE1
 70
     0
  9
$DIMSE2
 70
     0
  9
$DIMTAD
 70
     0
  9
$DIMZIN
 70
     0
  9
$DIMBLK
  1

  9
$DIMASO
 70
     1
  9
$DIMSHO
 70
     1
  9
$DIMPOST
  1

  9
$DIMAPOST
  1

  9
$DIMALT
 70
     0
  9
$DIMALTD
 70
     2
  9
$DIMALTF
 40
25.4
  9
$DIMLFAC
 40
1.0
  9
$DIMTOFL
 70
     0
  9
$DIMTVP
 40
0.0
  9
$DIMTIX
 70
     0
  9
$DIMSOXD
 70
     0
  9
$DIMSAH
 70
     0
  9
$DIMBLK1
  1

  9
$DIMBLK2
  1

  9
$DIMSTYLE
  2
Standard
  9
$DIMCLRD
 70
     0
  9
$DIMCLRE
 70
     0
  9
$DIMCLRT
 70
     0
  9
$DIMTFAC
 40
1.0
  9
$DIMGAP
 40
0.09
  9
$DIMJUST
 70
     0
  9
$DIMSD1
 70
     0
  9
$DIMSD2
 70
     0
  9
$DIMTOLJ
 70
     1
  9
$DIMTZIN
 70
     0
  9
$DIMALTZ
 70
     0
  9
$DIMALTTZ
 70
     0
  9
$DIMUPT
 70
     0
  9
$DIMDEC
 70
     4
  9
$DIMTDEC
 70
     4
  9
$DIMALTU
 70
     2
  9
$DIMALTTD
 70
     2
  9
$DIMTXSTY
  7
STANDARD
  9
$DIMAUNIT
 70
     0
  9
$DIMADEC
 70
     0
  9
$DIMALTRND
 40
0.0
  9
$DIMAZIN
 70
     0
  9
$DIMDSEP
 70
    46
  9
$DIMATFIT
 70
     3
  9
$DIMFRAC
 70
     0
  9
$DIMLDRBLK
  1

  9
$DIMLUNIT
 70
     2
  9
$DIMLWD
 70
    -2
  9
$DIMLWE
 70
    -2
  9
$DIMTMOVE
 70
     0
  9
$LUNITS
 70
     2
  9
$LUPREC
 70
     4
  9
$SKETCHINC
 40
0.1
  9
$FILLETRAD
 40
0.0
  9
$AUNITS
 70
     0
  9
$AUPREC
 70
     0
  9
$MENU
  1
.
  9
$ELEVATION
 40
0.0
  9
$PELEVATION
 40
0.0
  9
$THICKNESS
 40
0.0
  9
$LIMCHECK
 70
     0
  9
$CHAMFERA
 40
0.0
  9
$CHAMFERB
 40
0.0
  9
$CHAMFERC
 40
0.0
  9
$CHAMFERD
 40
0.0
  9
$SKPOLY
 70
     0
  9
$TDCREATE
 40
2453617.592317338
  9
$TDUCREATE
 40
2453617.258984005
  9
$TDUPDATE
 40
2453617.592613021
  9
$TDUUPDATE
 40
2453617.259279688
  9
$TDINDWG
 40
0.0002958565
  9
$TDUSRTIMER
 40
0.0002958565
  9
$USRTIMER
 70
     1
  9
$ANGBASE
 50
0.0
  9
$ANGDIR
 70
     0
  9
$PDMODE
 70
     0
  9
$PDSIZE
 40
0.0
  9
$PLINEWID
 40
0.0
  9
$SPLFRAME
 70
     0
  9
$SPLINETYPE
 70
     6
  9
$SPLINESEGS
 70
     8
  9
$HANDSEED
  5
148
  9
$SURFTAB1
 70
     6
  9
$SURFTAB2
 70
     6
  9
$SURFTYPE
 70
     6
  9
$SURFU
 70
     6
  9
$SURFV
 70
     6
  9
$UCSBASE
  2

  9
$UCSNAME
  2

  9
$UCSORG
 10
0.0
 20
0.0
 30
0.0
  9
$UCSXDIR
 10
1.0
 20
0.0
 30
0.0
  9
$UCSYDIR
 10
0.0
 20
1.0
 30
0.0
  9
$UCSORTHOREF
  2

  9
$UCSORTHOVIEW
 70
     0
  9
$UCSORGTOP
 10
0.0
 20
0.0
 30
0.0
  9
$UCSORGBOTTOM
 10
0.0
 20
0.0
 30
0.0
  9
$UCSORGLEFT
 10
0.0
 20
0.0
 30
0.0
  9
$UCSORGRIGHT
 10
0.0
 20
0.0
 30
0.0
  9
$UCSORGFRONT
 10
0.0
 20
0.0
 30
0.0
  9
$UCSORGBACK
 10
0.0
 20
0.0
 30
0.0
  9
$PUCSBASE
  2

  9
$PUCSNAME
  2

  9
$PUCSORG
 10
0.0
 20
0.0
 30
0.0
  9
$PUCSXDIR
 10
1.0
 20
0.0
 30
0.0
  9
$PUCSYDIR
 10
0.0
 20
1.0
 30
0.0
  9
$PUCSORTHOREF
  2

  9
$PUCSORTHOVIEW
 70
     0
  9
$PUCSORGTOP
 10
0.0
 20
0.0
 30
0.0
  9
$PUCSORGBOTTOM
 10
0.0
 20
0.0
 30
0.0
  9
$PUCSORGLEFT
 10
0.0
 20
0.0
 30
0.0
  9
$PUCSORGRIGHT
 10
0.0
 20
0.0
 30
0.0
  9
$PUCSORGFRONT
 10
0.0
 20
0.0
 30
0.0
  9
$PUCSORGBACK
 10
0.0
 20
0.0
 30
0.0
  9
$USERI1
 70
     0
  9
$USERI2
 70
     0
  9
$USERI3
 70
     0
  9
$USERI4
 70
     0
  9
$USERI5
 70
     0
  9
$USERR1
 40
0.0
  9
$USERR2
 40
0.0
  9
$USERR3
 40
0.0
  9
$USERR4
 40
0.0
  9
$USERR5
 40
0.0
  9
$WORLDVIEW
 70
     1
  9
$SHADEDGE
 70
     3
  9
$SHADEDIF
 70
    70
  9
$TILEMODE
 70
     1
  9
$MAXACTVP
 70
    64
  9
$PINSBASE
 10
0.0
 20
0.0
 30
0.0
  9
$PLIMCHECK
 70
     0
  9
$PEXTMIN
 10
1.000000000000000E+20
 20
1.000000000000000E+20
 30
1.000000000000000E+20
  9
$PEXTMAX
 10
-1.000000000000000E+20
 20
-1.000000000000000E+20
 30
-1.000000000000000E+20
  9
$PLIMMIN
 10
0.0
 20
0.0
  9
$PLIMMAX
 10
12.0
 20
9.0
  9
$UNITMODE
 70
     0
  9
$VISRETAIN
 70
     1
  9
$PLINEGEN
 70
     0
  9
$PSLTSCALE
 70
     1
  9
$TREEDEPTH
 70
  3020
  9
$CMLSTYLE
  2
Standard
  9
$CMLJUST
 70
     0
  9
$CMLSCALE
 40
1.0
  9
$PROXYGRAPHICS
 70
     1
  9
$MEASUREMENT
 70
     0
  9
$CELWEIGHT
370
    -1
  9
$ENDCAPS
280
     0
  9
$JOINSTYLE
280
     0
  9
$LWDISPLAY
290
     0
  9
$INSUNITS
 70
     0
  9
$HYPERLINKBASE
  1

  9
$STYLESHEET
  1

  9
$XEDIT
290
     1
  9
$CEPSNTYPE
380
     0
  9
$PSTYLEMODE
290
     1
  9
$FINGERPRINTGUID
  2
{9D1DBD25-6E4F-4F0C-BC4C-AAFF85C62C1D}
  9
$VERSIONGUID
  2
{95E38B40-709F-4493-8707-D9971F7DDC9D}
  9
$EXTNAMES
290
     1
  9
$PSVPSCALE
 40
0.0
  9
$OLESTARTUP
290
     0
  0
ENDSEC
  0
SECTION
  2
CLASSES
  0
CLASS
  1
ACDBDICTIONARYWDFLT
  2
AcDbDictionaryWithDefault
  3
ObjectDBX Classes
 90
        0
280
     0
281
     0
  0
CLASS
  1
DICTIONARYVAR
  2
AcDbDictionaryVar
  3
ObjectDBX Classes
 90
        0
280
     0
281
     0
  0
CLASS
  1
ACDBPLACEHOLDER
  2
AcDbPlaceHolder
  3
ObjectDBX Classes
 90
        0
280
     0
281
     0
  0
CLASS
  1
LAYOUT
  2
AcDbLayout
  3
ObjectDBX Classes
 90
        0
280
     0
281
     0
  0
ENDSEC
  0
SECTION
  2
TABLES
  0
TABLE
  2
VPORT
  5
8
330
0
100
AcDbSymbolTable
 70
     2
  0
VPORT
  5
140
330
8
100
AcDbSymbolTableRecord
100
AcDbViewportTableRecord
  2
*Active
 70
     0
 10
0.0
 20
0.0
 11
1.0
 21
1.0
 12
56.49672050000001
 22
50.84067449999999
 13
0.0
 23
0.0
 14
1.0
 24
1.0
 15
0.0
 25
0.0
 16
0.0
 26
0.0
 36
1.0
 17
0.0
 27
0.0
 37
0.0
 40
170.8388636739726
 41
1.964285714285714
 42
50.0
 43
0.0
 44
0.0
 50
0.0
 51
0.0
 71
     0
 72
   100
 73
     1
 74
     1
 75
     0
 76
     0
 77
     0
 78
     0
281
     0
 65
     1
110
0.0
120
0.0
130
0.0
111
1.0
121
0.0
131
0.0
112
0.0
122
1.0
132
0.0
 79
     0
146
0.0
  0
ENDTAB
  0
TABLE
  2
LTYPE
  5
5
330
0
100
AcDbSymbolTable
 70
     9
  0
LTYPE
  5
13
330
5
100
AcDbSymbolTableRecord
100
AcDbLinetypeTableRecord
  2
ByBlock
 70
     0
  3

 72
    65
 73
     0
 40
0.0
  0
LTYPE
  5
14
330
5
100
AcDbSymbolTableRecord
100
AcDbLinetypeTableRecord
  2
ByLayer
 70
     0
  3

 72
    65
 73
     0
 40
0.0
  0
LTYPE
  5
15
330
5
100
AcDbSymbolTableRecord
100
AcDbLinetypeTableRecord
  2
Continuous
 70
     0
  3
Solid line
 72
    65
 73
     0
 40
0.0
  0
LTYPE
  5
24
330
5
100
AcDbSymbolTableRecord
100
AcDbLinetypeTableRecord
  2
SOLID
 70
     0
  3

 72
    65
 73
     0
 40
0.0
  0
LTYPE
  5
25
330
5
100
AcDbSymbolTableRecord
100
AcDbLinetypeTableRecord
  2
DASH
 70
     0
  3

 72
    65
 73
     2
 40
8.0
 49
4.0
 74
     0
 49
-4.0
 74
     0
  0
LTYPE
  5
26
330
5
100
AcDbSymbolTableRecord
100
AcDbLinetypeTableRecord
  2
CENTER
 70
     0
  3

 72
    65
 73
     4
 40
8.0
 49
4.5
 74
     0
 49
-1.5
 74
     0
 49
0.5
 74
     0
 49
-1.5
 74
     0
  0
LTYPE
  5
27
330
5
100
AcDbSymbolTableRecord
100
AcDbLinetypeTableRecord
  2
L_DASH
 70
     0
  3

 72
    65
 73
     2
 40
8.0
 49
6.0
 74
     0
 49
-2.0
 74
     0
  0
LTYPE
  5
28
330
5
100
AcDbSymbolTableRecord
100
AcDbLinetypeTableRecord
  2
FONT_5
 70
     0
  3

 72
    65
 73
     8
 40
8.0
 49
0.5
 74
     0
 49
-1.5
 74
     0
 49
0.5
 74
     0
 49
-1.5
 74
     0
 49
0.5
 74
     0
 49
-1.5
 74
     0
 49
0.5
 74
     0
 49
-1.5
 74
     0
  0
LTYPE
  5
29
330
5
100
AcDbSymbolTableRecord
100
AcDbLinetypeTableRecord
  2
FONT_6
 70
     0
  3

 72
    65
 73
    11
 40
8.0
 49
0.5
 74
     0
 49
-1.0
 74
     0
 49
0.5
 74
     0
 49
-1.0
 74
     0
 49
0.5
 74
     0
 49
-1.0
 74
     0
 49
0.5
 74
     0
 49
-1.0
 74
     0
 49
0.5
 74
     0
 49
-1.0
 74
     0
 49
0.5
 74
     0
  0
LTYPE
  5
2A
330
5
100
AcDbSymbolTableRecord
100
AcDbLinetypeTableRecord
  2
FONT_7
 70
     0
  3

 72
    65
 73
     4
 40
8.0
 49
1.0
 74
     0
 49
-5.0
 74
     0
 49
1.0
 74
     0
 49
-1.0
 74
     0
  0
LTYPE
  5
2B
330
5
100
AcDbSymbolTableRecord
100
AcDbLinetypeTableRecord
  2
FONT_8
 70
     0
  3

 72
    65
 73
     4
 40
8.0
 49
1.0
 74
     0
 49
-5.0
 74
     0
 49
1.0
 74
     0
 49
-1.0
 74
     0
  0
ENDTAB
  0
TABLE
  2
LAYER
  5
2
330
0
100
AcDbSymbolTable
 70
     2
  0
LAYER
  5
10
330
2
100
AcDbSymbolTableRecord
100
AcDbLayerTableRecord
  2
0
 70
     0
 62
     7
  6
SOLID
370
    -3
390
F
  0
LAYER
  5
2C
330
2
100
AcDbSymbolTableRecord
100
AcDbLayerTableRecord
  2
LEVEL0
 70
     0
 62
     7
  6
SOLID
370
    -3
390
F
  0
ENDTAB
  0
TABLE
  2
STYLE
  5
3
330
0
100
AcDbSymbolTable
 70
     1
  0
STYLE
  5
11
330
3
100
AcDbSymbolTableRecord
100
AcDbTextStyleTableRecord
  2
STANDARD
 70
     0
 40
0.0
 41
1.0
 50
0.0
 71
     0
 42
0.0
  3
txt.shx
  4

  0
ENDTAB
  0
TABLE
  2
VIEW
  5
6
330
0
100
AcDbSymbolTable
 70
     0
  0
ENDTAB
  0
TABLE
  2
UCS
  5
7
330
0
100
AcDbSymbolTable
 70
     0
  0
ENDTAB
  0
TABLE
  2
APPID
  5
9
330
0
100
AcDbSymbolTable
 70
     1
  0
APPID
  5
12
330
9
100
AcDbSymbolTableRecord
100
AcDbRegAppTableRecord
  2
ACAD
 70
     0
  0
ENDTAB
  0
TABLE
  2
DIMSTYLE
  5
A
330
0
100
AcDbSymbolTable
 70
     1
100
AcDbDimStyleTable
 71
     0
  0
DIMSTYLE
105
13B
330
A
100
AcDbSymbolTableRecord
100
AcDbDimStyleTableRecord
  2
Standard
 70
     0
340
11
  0
ENDTAB
  0
TABLE
  2
BLOCK_RECORD
  5
1
330
0
100
AcDbSymbolTable
 70
     0
  0
BLOCK_RECORD
  5
20
330
1
100
AcDbSymbolTableRecord
100
AcDbBlockTableRecord
  2
*Model_Space
340
23
  0
BLOCK_RECORD
  5
1C
330
1
100
AcDbSymbolTableRecord
100
AcDbBlockTableRecord
  2
*Paper_Space
340
1F
  0
ENDTAB
  0
ENDSEC
  0
SECTION
  2
BLOCKS
  0
BLOCK
  5
21
330
20
100
AcDbEntity
  8
0
100
AcDbBlockBegin
  2
*Model_Space
 70
     0
 10
0.0
 20
0.0
 30
0.0
  3
*Model_Space
  1

  0
ENDBLK
  5
22
330
20
100
AcDbEntity
  8
0
100
AcDbBlockEnd
  0
BLOCK
  5
1D
330
1C
100
AcDbEntity
 67
     1
  8
0
100
AcDbBlockBegin
  2
*Paper_Space
 70
     0
 10
0.0
 20
0.0
 30
0.0
  3
*Paper_Space
  1

  0
ENDBLK
  5
1E
330
1C
100
AcDbEntity
 67
     1
  8
0
100
AcDbBlockEnd
  0
ENDSEC
  0
SECTION
  2
ENTITIES
  0
LINE
  5
2F
330
20
100
AcDbEntity
  8
0
  6
SOLID
 62
     7
100
AcDbLine
 10
9.448685000000001
 20
80.25168599999998
 30
0.0
 11
3.879894
 21
75.251823
 31
0.0
  0
LINE
  5
30
330
20
100
AcDbEntity
  8
0
  6
SOLID
 62
     7
100
AcDbLine
 10
3.580077999999999
 20
75.551651
 30
0.0
 11
-3.580077999999999
 21
75.551651
 31
0.0
  0
LINE
  5
31
330
20
100
AcDbEntity
  8
0
  6
SOLID
 62
     7
100
AcDbLine
 10
95.80859399999999
 20
6.107687999999999
 30
0.0
 11
90.808739
 21
11.676473
 31
0.0
  0
LINE
  5
32
330
20
100
AcDbEntity
  8
0
  6
SOLID
 62
     7
100
AcDbLine
 10
91.10863499999998
 20
-11.976378
 30
0.0
 11
90.80873100000001
 21
-11.676471
 31
0.0
  0
LINE
  5
33
330
20
100
AcDbEntity
  8
0
  6
SOLID
 62
     7
100
AcDbLine
 10
95.80859399999999
 20
-11.976288
 30
0.0
 11
91.108551
 21
-11.976288
 31
0.0
  0
LINE
  5
34
330
20
100
AcDbEntity
  8
0
  6
SOLID
 62
     7
100
AcDbLine
 10
12.5
 20
80.251678
 30
0.0
 11
12.5
 21
75.751678
 31
0.0
  0
LINE
  5
35
330
20
100
AcDbEntity
  8
0
  6
SOLID
 62
     7
100
AcDbLine
 10
91.108551
 20
-11.976288
 30
0.0
 11
91.108551
 21
-12.299988
 31
0.0
  0
LINE
  5
36
330
20
100
AcDbEntity
  8
0
  6
SOLID
 62
     7
100
AcDbLine
 10
91.108551
 20
11.976303
 30
0.0
 11
91.108551
 21
12.299988
 31
0.0
  0
LINE
  5
37
330
20
100
AcDbEntity
  8
0
  6
SOLID
 62
     7
100
AcDbLine
 10
-11.976288
 20
80.251678
 30
0.0
 11
-11.976288
 21
75.551651
 31
0.0
  0
LINE
  5
38
330
20
100
AcDbEntity
  8
0
  6
SOLID
 62
     7
100
AcDbLine
 10
95.80859399999999
 20
11.976303
 30
0.0
 11
91.108551
 21
11.976303
 31
0.0
  0
LINE
  5
39
330
20
100
AcDbEntity
  8
0
  6
SOLID
 62
     7
100
AcDbLine
 10
91.108627
 20
11.976384
 30
0.0
 11
90.80872300000001
 21
11.676476
 31
0.0
  0
LINE
  5
3A
330
20
100
AcDbEntity
  8
0
  6
SOLID
 62
     7
100
AcDbLine
 10
-11.976288
 20
75.551651
 30
0.0
 11
-12.299988
 21
75.551651
 31
0.0
  0
LINE
  5
3B
330
20
100
AcDbEntity
  8
0
  6
SOLID
 62
     7
100
AcDbLine
 10
95.808601
 20
9.448705
 30
0.0
 11
90.80872300000001
 21
3.879897
 31
0.0
  0
LINE
  5
3C
330
20
100
AcDbEntity
  8
0
  6
SOLID
 62
     7
100
AcDbLine
 10
3.579966999999999
 20
-11.976309
 30
0.0
 11
11.976521
 21
-3.579755999999999
 31
0.0
  0
LINE
  5
3D
330
20
100
AcDbEntity
  8
0
  6
SOLID
 62
     7
100
AcDbLine
 10
-11.976317
 20
-3.57974
 30
0.0
 11
-3.579748
 21
-11.97631
 31
0.0
  0
LINE
  5
3E
330
20
100
AcDbEntity
  8
0
  6
SOLID
 62
     7
100
AcDbLine
 10
95.80859399999999
 20
-12.5
 30
0.0
 11
91.308594
 21
-12.5
 31
0.0
  0
LINE
  5
3F
330
20
100
AcDbEntity
  8
0
  6
SOLID
 62
     7
100
AcDbLine
 10
11.976288
 20
75.551651
 30
0.0
 11
12.299988
 21
75.551651
 31
0.0
  0
LINE
  5
40
330
20
100
AcDbEntity
  8
0
  6
SOLID
 62
     7
100
AcDbLine
 10
11.976288
 20
80.251678
 30
0.0
 11
11.976288
 21
75.551651
 31
0.0
  0
LINE
  5
41
330
20
100
AcDbEntity
  8
0
  6
SOLID
 62
     7
100
AcDbLine
 10
-12.500006
 20
75.75166299999999
 30
0.0
 11
-12.000016
 21
75.251671
 31
0.0
  0
LINE
  5
42
330
20
100
AcDbEntity
  8
0
  6
SOLID
 62
     7
100
AcDbLine
 10
91.30856300000001
 20
-12.49999
 30
0.0
 11
90.808578
 21
-12.000001
 31
0.0
  0
LINE
  5
43
330
20
100
AcDbEntity
  8
0
  6
SOLID
 62
     7
100
AcDbLine
 10
11.976368
 20
75.55172699999999
 30
0.0
 11
11.67646
 21
75.251816
 31
0.0
  0
LINE
  5
44
330
20
100
AcDbEntity
  8
0
  6
SOLID
 62
     7
100
AcDbLine
 10
95.80859399999999
 20
12.5
 30
0.0
 11
91.308594
 21
12.5
 31
0.0
  0
LINE
  5
45
330
20
100
AcDbEntity
  8
0
  6
SOLID
 62
     7
100
AcDbLine
 10
3.580077999999999
 20
80.251678
 30
0.0
 11
3.580077999999999
 21
75.551651
 31
0.0
  0
LINE
  5
46
330
20
100
AcDbEntity
  8
0
  6
SOLID
 62
     7
100
AcDbLine
 10
3.580166
 20
11.976485
 30
0.0
 11
11.976477
 21
3.580173999999999
 31
0.0
  0
LINE
  5
47
330
20
100
AcDbEntity
  8
0
  6
SOLID
 62
     7
100
AcDbLine
 10
6.107679
 20
80.251671
 30
0.0
 11
11.676464
 21
75.251816
 31
0.0
  0
LINE
  5
48
330
20
100
AcDbEntity
  8
0
  6
SOLID
 62
     7
100
AcDbLine
 10
-9.448698
 20
80.251671
 30
0.0
 11
-3.879912
 21
75.251816
 31
0.0
  0
LINE
  5
49
330
20
100
AcDbEntity
  8
0
  6
SOLID
 62
     7
100
AcDbLine
 10
95.80859399999999
 20
3.580077999999999
 30
0.0
 11
91.108551
 21
3.580077999999999
 31
0.0
  0
LINE
  5
4A
330
20
100
AcDbEntity
  8
0
  6
SOLID
 62
     7
100
AcDbLine
 10
3.579991999999999
 20
75.55172699999999
 30
0.0
 11
3.8799
 21
75.251816
 31
0.0
  0
LINE
  5
4B
330
20
100
AcDbEntity
  8
0
  6
SOLID
 62
     7
100
AcDbLine
 10
-11.976274
 20
3.580148
 30
0.0
 11
-3.579957999999999
 21
11.976463
 31
0.0
  0
LINE
  5
4C
330
20
100
AcDbEntity
  8
0
  6
SOLID
 62
     7
100
AcDbLine
 10
91.108551
 20
-3.580077999999999
 30
0.0
 11
91.108551
 21
3.580077999999999
 31
0.0
  0
LINE
  5
4D
330
20
100
AcDbEntity
  8
0
  6
SOLID
 62
     7
100
AcDbLine
 10
91.108627
 20
3.580003
 30
0.0
 11
90.808716
 21
3.879910999999999
 31
0.0
  0
LINE
  5
4E
330
20
100
AcDbEntity
  8
0
  6
SOLID
 62
     7
100
AcDbLine
 10
-11.9764
 20
75.55172699999999
 30
0.0
 11
-11.676493
 21
75.251816
 31
0.0
  0
LINE
  5
4F
330
20
100
AcDbEntity
  8
0
  6
SOLID
 62
     7
100
AcDbLine
 10
90.80859399999999
 20
-12.0
 30
0.0
 11
90.80859399999999
 21
12.0
 31
0.0
  0
LINE
  5
50
330
20
100
AcDbEntity
  8
0
  6
SOLID
 62
     7
100
AcDbLine
 10
-3.580077999999999
 20
80.251678
 30
0.0
 11
-3.580077999999999
 21
75.551651
 31
0.0
  0
LINE
  5
51
330
20
100
AcDbEntity
  8
0
  6
SOLID
 62
     7
100
AcDbLine
 10
-3.579991999999999
 20
75.551712
 30
0.0
 11
-3.8799
 21
75.251808
 31
0.0
  0
LINE
  5
52
330
20
100
AcDbEntity
  8
0
  6
SOLID
 62
     7
100
AcDbLine
 10
-12.5
 20
80.251678
 30
0.0
 11
-12.5
 21
75.751678
 31
0.0
  0
LINE
  5
53
330
20
100
AcDbEntity
  8
0
  6
SOLID
 62
     7
100
AcDbLine
 10
91.308571
 20
12.500007
 30
0.0
 11
90.80857100000001
 21
12.000006
 31
0.0
  0
LINE
  5
54
330
20
100
AcDbEntity
  8
0
  6
SOLID
 62
     7
100
AcDbLine
 10
95.80859399999999
 20
-3.580077999999999
 30
0.0
 11
91.108551
 21
-3.580077999999999
 31
0.0
  0
LINE
  5
55
330
20
100
AcDbEntity
  8
0
  6
SOLID
 62
     7
100
AcDbLine
 10
-6.107696999999999
 20
80.251678
 30
0.0
 11
-11.676482
 21
75.251823
 31
0.0
  0
LINE
  5
56
330
20
100
AcDbEntity
  8
0
  6
SOLID
 62
     7
100
AcDbLine
 10
91.10864300000001
 20
-3.579998
 30
0.0
 11
90.80873100000001
 21
-3.879905999999999
 31
0.0
  0
LINE
  5
57
330
20
100
AcDbEntity
  8
0
  6
SOLID
 62
     7
100
AcDbLine
 10
95.80859399999999
 20
-6.10768
 30
0.0
 11
90.80873100000001
 21
-11.676476
 31
0.0
  0
LINE
  5
58
330
20
100
AcDbEntity
  8
0
  6
SOLID
 62
     7
100
AcDbLine
 10
12.499998
 20
75.751671
 30
0.0
 11
12.000008
 21
75.251678
 31
0.0
  0
LINE
  5
59
330
20
100
AcDbEntity
  8
0
  6
SOLID
 62
     7
100
AcDbLine
 10
95.80859399999999
 20
-9.448688
 30
0.0
 11
90.808739
 21
-3.879903
 31
0.0
  0
LINE
  5
5A
330
20
100
AcDbEntity
  8
0
  6
SOLID
 62
     7
100
AcDbLine
 10
-18.5
 20
80.251678
 30
0.0
 11
18.5
 21
80.251678
 31
0.0
  0
LINE
  5
5B
330
20
100
AcDbEntity
  8
0
  6
SOLID
 62
     7
100
AcDbLine
 10
19.0
 20
85.25169400000001
 30
0.0
 11
19.0
 21
80.751678
 31
0.0
  0
LINE
  5
5C
330
20
100
AcDbEntity
  8
0
  6
SOLID
 62
     7
100
AcDbLine
 10
18.0
 20
113.25168
 30
0.0
 11
18.0
 21
86.25167799999999
 31
0.0
  0
LINE
  5
5D
330
20
100
AcDbEntity
  8
0
  6
SOLID
 62
     7
100
AcDbLine
 10
-18.0
 20
113.25168
 30
0.0
 11
-18.0
 21
86.25167799999999
 31
0.0
  0
LINE
  5
5E
330
20
100
AcDbEntity
  8
0
  6
SOLID
 62
     7
100
AcDbLine
 10
-19.0
 20
85.25170899999999
 30
0.0
 11
-19.0
 21
80.751678
 31
0.0
  0
LINE
  5
5F
330
20
100
AcDbEntity
  8
0
  6
SOLID
 62
     7
100
AcDbLine
 10
35.0
 20
112.25168
 30
0.0
 11
35.0
 21
87.25167799999999
 31
0.0
  0
LINE
  5
60
330
20
100
AcDbEntity
  8
0
  6
SOLID
 62
     7
100
AcDbLine
 10
-35.0
 20
112.25134
 30
0.0
 11
-35.0
 21
87.25167799999999
 31
0.0
  0
LINE
  5
61
330
20
100
AcDbEntity
  8
0
  6
SOLID
 62
     7
100
AcDbLine
 10
-34.0
 20
113.25168
 30
0.0
 11
34.0
 21
113.25168
 31
0.0
  0
LINE
  5
62
330
20
100
AcDbEntity
  8
0
  6
SOLID
 62
     7
100
AcDbLine
 10
-33.999756
 20
86.25167799999999
 30
0.0
 11
34.000244
 21
86.25167799999999
 31
0.0
  0
LINE
  5
63
330
20
100
AcDbEntity
  8
0
  6
CENTER
 62
     7
100
AcDbLine
 10
63.67481999999999
 20
0.0
 30
0.0
 11
150.43558
 21
0.0
 31
0.0
  0
LINE
  5
64
330
20
100
AcDbEntity
  8
0
  6
SOLID
 62
     7
100
AcDbLine
 10
-33.209961
 20
107.25168
 30
0.0
 11
-20.20043900000001
 21
107.25168
 31
0.0
  0
LINE
  5
65
330
20
100
AcDbEntity
  8
0
  6
SOLID
 62
     7
100
AcDbLine
 10
-33.426758
 20
92.25167799999999
 30
0.0
 11
-20.272705
 21
92.25167799999999
 31
0.0
  0
LINE
  5
66
330
20
100
AcDbEntity
  8
0
  6
SOLID
 62
     7
100
AcDbLine
 10
27.0
 20
114.57422
 30
0.0
 11
27.0
 21
85.254501
 31
0.0
  0
LINE
  5
67
330
20
100
AcDbEntity
  8
0
  6
SOLID
 62
     7
100
AcDbLine
 10
-33.999767
 20
113.25146
 30
0.0
 11
-34.999763
 21
112.25112
 31
0.0
  0
LINE
  5
68
330
20
100
AcDbEntity
  8
0
  6
SOLID
 62
     7
100
AcDbLine
 10
-34.999657
 20
87.25138900000001
 30
0.0
 11
-33.99976
 21
86.25149499999999
 31
0.0
  0
LINE
  5
69
330
20
100
AcDbEntity
  8
0
  6
SOLID
 62
     7
100
AcDbLine
 10
34.000313
 20
113.2514
 30
0.0
 11
35.00021
 21
112.25151
 31
0.0
  0
LINE
  5
6A
330
20
100
AcDbEntity
  8
0
  6
SOLID
 62
     7
100
AcDbLine
 10
35.00037800000001
 20
87.25132
 30
0.0
 11
34.000481
 21
86.25131999999998
 31
0.0
  0
LINE
  5
6B
330
20
100
AcDbEntity
  8
0
  6
SOLID
 62
     7
100
AcDbLine
 10
20.250732
 20
107.25168
 30
0.0
 11
33.476807
 21
107.25168
 31
0.0
  0
LINE
  5
6C
330
20
100
AcDbEntity
  8
0
  6
SOLID
 62
     7
100
AcDbLine
 10
19.817139
 20
92.25167799999999
 30
0.0
 11
33.332275
 21
92.25167799999999
 31
0.0
  0
LINE
  5
6D
330
20
100
AcDbEntity
  8
0
  6
SOLID
 62
     7
100
AcDbLine
 10
101.80859
 20
-28.0
 30
0.0
 11
128.80859
 21
-28.0
 31
0.0
  0
LINE
  5
6E
330
20
100
AcDbEntity
  8
0
  6
SOLID
 62
     7
100
AcDbLine
 10
101.80859
 20
20.0
 30
0.0
 11
128.80859
 21
20.0
 31
0.0
  0
LINE
  5
6F
330
20
100
AcDbEntity
  8
0
  6
SOLID
 62
     7
100
AcDbLine
 10
128.80859
 20
20.0
 30
0.0
 11
128.80859
 21
-28.0
 31
0.0
  0
LINE
  5
70
330
20
100
AcDbEntity
  8
0
  6
SOLID
 62
     7
100
AcDbLine
 10
101.80859
 20
-28.000031
 30
0.0
 11
101.80859
 21
20.0
 31
0.0
  0
LINE
  5
71
330
20
100
AcDbEntity
  8
0
  6
SOLID
 62
     7
100
AcDbLine
 10
95.80859399999999
 20
18.0
 30
0.0
 11
95.80859399999999
 21
-18.0
 31
0.0
  0
LINE
  5
72
330
20
100
AcDbEntity
  8
0
  6
SOLID
 62
     7
100
AcDbLine
 10
20.0
 20
113.25168
 30
0.0
 11
20.0
 21
86.25167799999999
 31
0.0
  0
LINE
  5
73
330
20
100
AcDbEntity
  8
0
  6
SOLID
 62
     7
100
AcDbLine
 10
12.0
 20
75.251678
 30
0.0
 11
-12.0
 21
75.251678
 31
0.0
  0
LINE
  5
74
330
20
100
AcDbEntity
  8
0
  6
CENTER
 62
     7
100
AcDbLine
 10
-37.442139
 20
0.0
 30
0.0
 11
37.033447
 21
0.0
 31
0.0
  0
LINE
  5
75
330
20
100
AcDbEntity
  8
0
  6
CENTER
 62
     7
100
AcDbLine
 10
0.0
 20
21.299423
 30
0.0
 11
0.0
 21
-33.197311
 31
0.0
  0
LINE
  5
76
330
20
100
AcDbEntity
  8
0
  6
SOLID
 62
     7
100
AcDbLine
 10
35.0
 20
9.0
 30
0.0
 11
35.0
 21
-27.0
 31
0.0
  0
LINE
  5
77
330
20
100
AcDbEntity
  8
0
  6
SOLID
 62
     7
100
AcDbLine
 10
-35.0
 20
9.0
 30
0.0
 11
-35.0
 21
-27.0
 31
0.0
  0
LINE
  5
78
330
20
100
AcDbEntity
  8
0
  6
SOLID
 62
     7
100
AcDbLine
 10
-18.0
 20
20.0
 30
0.0
 11
18.0
 21
20.0
 31
0.0
  0
LINE
  5
79
330
20
100
AcDbEntity
  8
0
  6
SOLID
 62
     7
100
AcDbLine
 10
-34.0
 20
10.0
 30
0.0
 11
-20.0
 21
10.0
 31
0.0
  0
LINE
  5
7A
330
20
100
AcDbEntity
  8
0
  6
SOLID
 62
     7
100
AcDbLine
 10
-20.0
 20
17.999924
 30
0.0
 11
-20.0
 21
10.0
 31
0.0
  0
LINE
  5
7B
330
20
100
AcDbEntity
  8
0
  6
SOLID
 62
     7
100
AcDbLine
 10
20.0
 20
18.0
 30
0.0
 11
20.0
 21
10.0
 31
0.0
  0
LINE
  5
7C
330
20
100
AcDbEntity
  8
0
  6
SOLID
 62
     7
100
AcDbLine
 10
18.000404
 20
19.999641
 30
0.0
 11
20.00037
 21
17.999689
 31
0.0
  0
LINE
  5
7D
330
20
100
AcDbEntity
  8
0
  6
SOLID
 62
     7
100
AcDbLine
 10
-17.999807
 20
19.999836
 30
0.0
 11
-19.999807
 21
17.999767
 31
0.0
  0
LINE
  5
7E
330
20
100
AcDbEntity
  8
0
  6
SOLID
 62
     7
100
AcDbLine
 10
-34.99968300000001
 20
-27.000332
 30
0.0
 11
-33.99961500000001
 21
-28.000393
 31
0.0
  0
LINE
  5
7F
330
20
100
AcDbEntity
  8
0
  6
SOLID
 62
     7
100
AcDbLine
 10
35.000134
 20
-27.000105
 30
0.0
 11
34.000309
 21
-28.000111
 31
0.0
  0
LINE
  5
80
330
20
100
AcDbEntity
  8
0
  6
SOLID
 62
     7
100
AcDbLine
 10
20.0
 20
10.0
 30
0.0
 11
34.0
 21
10.0
 31
0.0
  0
LINE
  5
81
330
20
100
AcDbEntity
  8
0
  6
SOLID
 62
     7
100
AcDbLine
 10
-27.0
 20
13.03035
 30
0.0
 11
-27.0
 21
-33.197311
 31
0.0
  0
LINE
  5
82
330
20
100
AcDbEntity
  8
0
  6
SOLID
 62
     7
100
AcDbLine
 10
31.358643
 20
-18.0
 30
0.0
 11
22.63208
 21
-18.0
 31
0.0
  0
LINE
  5
83
330
20
100
AcDbEntity
  8
0
  6
SOLID
 62
     7
100
AcDbLine
 10
-31.358643
 20
-18.0
 30
0.0
 11
-22.63208
 21
-18.0
 31
0.0
  0
LINE
  5
84
330
20
100
AcDbEntity
  8
0
  6
SOLID
 62
     7
100
AcDbLine
 10
27.0
 20
13.03035
 30
0.0
 11
27.0
 21
-33.197311
 31
0.0
  0
LINE
  5
85
330
20
100
AcDbEntity
  8
0
  6
SOLID
 62
     7
100
AcDbLine
 10
-33.999756
 20
-28.0
 30
0.0
 11
34.000244
 21
-28.0
 31
0.0
  0
LINE
  5
86
330
20
100
AcDbEntity
  8
0
  6
SOLID
 62
     7
100
AcDbLine
 10
-34.000011
 20
10.000014
 30
0.0
 11
-35.000011
 21
9.000013
 31
0.0
  0
LINE
  5
87
330
20
100
AcDbEntity
  8
0
  6
SOLID
 62
     7
100
AcDbLine
 10
34.000019
 20
9.999986999999999
 30
0.0
 11
35.0
 21
9.000007
 31
0.0
  0
LINE
  5
88
330
20
100
AcDbEntity
  8
0
  6
SOLID
 62
     7
100
AcDbLine
 10
-20.0
 20
113.25168
 30
0.0
 11
-20.0
 21
86.25167799999999
 31
0.0
  0
LINE
  5
89
330
20
100
AcDbEntity
  8
0
  6
SOLID
 62
     7
100
AcDbLine
 10
96.80859400000001
 20
19.0
 30
0.0
 11
101.30859
 21
19.0
 31
0.0
  0
LINE
  5
8A
330
20
100
AcDbEntity
  8
0
  6
SOLID
 62
     7
100
AcDbLine
 10
96.80859400000001
 20
-19.0
 30
0.0
 11
101.30859
 21
-19.0
 31
0.0
  0
LINE
  5
8B
330
20
100
AcDbEntity
  8
0
  6
SOLID
 62
     7
100
AcDbLine
 10
95.808578
 20
-18.000004
 30
0.0
 11
96.808578
 21
-19.000006
 31
0.0
  0
LINE
  5
8C
330
20
100
AcDbEntity
  8
0
  6
SOLID
 62
     7
100
AcDbLine
 10
96.80856300000002
 20
19.000025
 30
0.0
 11
95.808563
 21
18.000023
 31
0.0
  0
LINE
  5
8D
330
20
100
AcDbEntity
  8
0
  6
SOLID
 62
     7
100
AcDbLine
 10
14.968506
 20
11.81369
 30
0.0
 11
12.65918
 21
11.81369
 31
0.0
  0
LINE
  5
8E
330
20
100
AcDbEntity
  8
0
  6
SOLID
 62
     7
100
AcDbLine
 10
12.658373
 20
15.811422
 30
0.0
 11
11.50371
 21
13.811487
 31
0.0
  0
LINE
  5
8F
330
20
100
AcDbEntity
  8
0
  6
SOLID
 62
     7
100
AcDbLine
 10
14.968506
 20
15.81369
 30
0.0
 11
12.65918
 21
15.81369
 31
0.0
  0
LINE
  5
90
330
20
100
AcDbEntity
  8
0
  6
SOLID
 62
     7
100
AcDbLine
 10
17.58632099999999
 20
17.585703
 30
0.0
 11
10.136322
 21
10.135705
 31
0.0
  0
LINE
  5
91
330
20
100
AcDbEntity
  8
0
  6
SOLID
 62
     7
100
AcDbLine
 10
16.122475
 20
13.811423
 30
0.0
 11
14.967812
 21
11.811488
 31
0.0
  0
LINE
  5
92
330
20
100
AcDbEntity
  8
0
  6
SOLID
 62
     7
100
AcDbLine
 10
11.503666
 20
13.8126
 30
0.0
 11
12.658207
 21
11.812877
 31
0.0
  0
LINE
  5
93
330
20
100
AcDbEntity
  8
0
  6
SOLID
 62
     7
100
AcDbLine
 10
14.967768
 20
15.8126
 30
0.0
 11
16.122309
 21
13.812876
 31
0.0
  0
LINE
  5
94
330
20
100
AcDbEntity
  8
0
  6
SOLID
 62
     7
100
AcDbLine
 10
-17.585579
 20
17.585634
 30
0.0
 11
-10.13558
 21
10.135635
 31
0.0
  0
LINE
  5
95
330
20
100
AcDbEntity
  8
0
  6
SOLID
 62
     7
100
AcDbLine
 10
-15.813477
 20
14.968369
 30
0.0
 11
-15.813477
 21
12.658966
 31
0.0
  0
LINE
  5
96
330
20
100
AcDbEntity
  8
0
  6
SOLID
 62
     7
100
AcDbLine
 10
-11.813477
 20
14.968369
 30
0.0
 11
-11.813477
 21
12.658966
 31
0.0
  0
LINE
  5
97
330
20
100
AcDbEntity
  8
0
  6
SOLID
 62
     7
100
AcDbLine
 10
-15.812776
 20
14.967283
 30
0.0
 11
-13.812787
 21
16.121977
 31
0.0
  0
LINE
  5
98
330
20
100
AcDbEntity
  8
0
  6
SOLID
 62
     7
100
AcDbLine
 10
-13.812776
 20
11.503181
 30
0.0
 11
-11.812788
 21
12.657875
 31
0.0
  0
LINE
  5
99
330
20
100
AcDbEntity
  8
0
  6
SOLID
 62
     7
100
AcDbLine
 10
-13.811142
 20
16.121737
 30
0.0
 11
-11.811207
 21
14.967072
 31
0.0
  0
LINE
  5
9A
330
20
100
AcDbEntity
  8
0
  6
SOLID
 62
     7
100
AcDbLine
 10
-15.811141
 20
12.657636
 30
0.0
 11
-13.811206
 21
11.502973
 31
0.0
  0
LINE
  5
9B
330
20
100
AcDbEntity
  8
0
  6
SOLID
 62
     7
100
AcDbLine
 10
-17.585514
 20
-17.586132
 30
0.0
 11
-10.135516
 21
-10.136133
 31
0.0
  0
LINE
  5
9C
330
20
100
AcDbEntity
  8
0
  6
SOLID
 62
     7
100
AcDbLine
 10
-14.968262
 20
-15.813507
 30
0.0
 11
-12.658936
 21
-15.813507
 31
0.0
  0
LINE
  5
9D
330
20
100
AcDbEntity
  8
0
  6
SOLID
 62
     7
100
AcDbLine
 10
-14.968262
 20
-11.813507
 30
0.0
 11
-12.658936
 21
-11.813507
 31
0.0
  0
LINE
  5
9E
330
20
100
AcDbEntity
  8
0
  6
SOLID
 62
     7
100
AcDbLine
 10
-14.967457
 20
-15.812924
 30
0.0
 11
-16.12212
 21
-13.812989
 31
0.0
  0
LINE
  5
9F
330
20
100
AcDbEntity
  8
0
  6
SOLID
 62
     7
100
AcDbLine
 10
-11.503355
 20
-13.812925
 30
0.0
 11
-12.658018
 21
-11.81299
 31
0.0
  0
LINE
  5
A0
330
20
100
AcDbEntity
  8
0
  6
SOLID
 62
     7
100
AcDbLine
 10
-16.121429
 20
-13.81193
 30
0.0
 11
-14.966765
 21
-11.811995
 31
0.0
  0
LINE
  5
A1
330
20
100
AcDbEntity
  8
0
  6
SOLID
 62
     7
100
AcDbLine
 10
-12.657327
 20
-15.81193
 30
0.0
 11
-11.502664
 21
-13.811995
 31
0.0
  0
LINE
  5
A2
330
20
100
AcDbEntity
  8
0
  6
SOLID
 62
     7
100
AcDbLine
 10
17.586306
 20
-17.586142
 30
0.0
 11
10.136307
 21
-10.136144
 31
0.0
  0
LINE
  5
A3
330
20
100
AcDbEntity
  8
0
  6
SOLID
 62
     7
100
AcDbLine
 10
15.813721
 20
-14.968292
 30
0.0
 11
15.813721
 21
-12.658966
 31
0.0
  0
LINE
  5
A4
330
20
100
AcDbEntity
  8
0
  6
SOLID
 62
     7
100
AcDbLine
 10
11.813721
 20
-14.968292
 30
0.0
 11
11.813721
 21
-12.658966
 31
0.0
  0
LINE
  5
A5
330
20
100
AcDbEntity
  8
0
  6
SOLID
 62
     7
100
AcDbLine
 10
15.813008
 20
-14.967475
 30
0.0
 11
13.813073
 21
-16.122137
 31
0.0
  0
LINE
  5
A6
330
20
100
AcDbEntity
  8
0
  6
SOLID
 62
     7
100
AcDbLine
 10
13.813008
 20
-11.503373
 30
0.0
 11
11.813073
 21
-12.658036
 31
0.0
  0
LINE
  5
A7
330
20
100
AcDbEntity
  8
0
  6
SOLID
 62
     7
100
AcDbLine
 10
13.812213
 20
-16.122202
 30
0.0
 11
11.812277
 21
-14.967539
 31
0.0
  0
LINE
  5
A8
330
20
100
AcDbEntity
  8
0
  6
SOLID
 62
     7
100
AcDbLine
 10
15.81221
 20
-12.658103
 30
0.0
 11
13.812275
 21
-11.50344
 31
0.0
  0
LINE
  5
A9
330
20
100
AcDbEntity
  8
0
  6
SOLID
 62
     7
100
AcDbLine
 10
-19.0
 20
16.248077
 30
0.0
 11
-19.0
 21
-16.248077
 31
0.0
  0
LINE
  5
AA
330
20
100
AcDbEntity
  8
0
  6
SOLID
 62
     7
100
AcDbLine
 10
19.0
 20
16.248077
 30
0.0
 11
19.0
 21
-16.248077
 31
0.0
  0
LINE
  5
AB
330
20
100
AcDbEntity
  8
0
  6
SOLID
 62
     7
100
AcDbLine
 10
-16.248077
 20
19.0
 30
0.0
 11
16.248077
 21
19.0
 31
0.0
  0
LINE
  5
AC
330
20
100
AcDbEntity
  8
0
  6
SOLID
 62
     7
100
AcDbLine
 10
-16.248077
 20
-19.0
 30
0.0
 11
16.248077
 21
-19.0
 31
0.0
  0
LINE
  5
AD
330
20
100
AcDbEntity
  8
0
  6
SOLID
 62
     7
100
AcDbLine
 10
18.999989
 20
80.751694
 30
0.0
 11
18.499989
 21
80.25169400000001
 31
0.0
  0
LINE
  5
AE
330
20
100
AcDbEntity
  8
0
  6
SOLID
 62
     7
100
AcDbLine
 10
-19.000013
 20
80.751678
 30
0.0
 11
-18.500023
 21
80.25168599999998
 31
0.0
  0
LINE
  5
AF
330
20
100
AcDbEntity
  8
0
  6
SOLID
 62
     7
100
AcDbLine
 10
-34.0
 20
113.25168
 30
0.0
 11
-34.0
 21
86.25167799999999
 31
0.0
  0
LINE
  5
B0
330
20
100
AcDbEntity
  8
0
  6
SOLID
 62
     7
100
AcDbLine
 10
34.0
 20
113.25168
 30
0.0
 11
34.0
 21
86.25167799999999
 31
0.0
  0
LINE
  5
B1
330
20
100
AcDbEntity
  8
0
  6
SOLID
 62
     7
100
AcDbLine
 10
-33.999756
 20
10.0
 30
0.0
 11
-33.999756
 21
-28.0
 31
0.0
  0
LINE
  5
B2
330
20
100
AcDbEntity
  8
0
  6
SOLID
 62
     7
100
AcDbLine
 10
34.000244
 20
10.0
 30
0.0
 11
34.000244
 21
-28.0
 31
0.0
  0
LINE
  5
B3
330
20
100
AcDbEntity
  8
0
  6
SOLID
 62
     7
100
AcDbLine
 10
101.80859
 20
17.999695
 30
0.0
 11
128.80859
 21
17.999695
 31
0.0
  0
LINE
  5
B4
330
20
100
AcDbEntity
  8
0
  6
SOLID
 62
     7
100
AcDbLine
 10
101.80859
 20
10.0
 30
0.0
 11
128.80859
 21
10.0
 31
0.0
  0
LINE
  5
B5
330
20
100
AcDbEntity
  8
0
  6
SOLID
 62
     7
100
AcDbLine
 10
102.80859
 20
9.0
 30
0.0
 11
127.80859
 21
9.0
 31
0.0
  0
LINE
  5
B6
330
20
100
AcDbEntity
  8
0
  6
SOLID
 62
     7
100
AcDbLine
 10
102.80859
 20
-27.0
 30
0.0
 11
127.80859
 21
-27.0
 31
0.0
  0
LINE
  5
B7
330
20
100
AcDbEntity
  8
0
  6
SOLID
 62
     7
100
AcDbLine
 10
102.80859
 20
-27.0
 30
0.0
 11
102.80859
 21
9.0
 31
0.0
  0
LINE
  5
B8
330
20
100
AcDbEntity
  8
0
  6
SOLID
 62
     7
100
AcDbLine
 10
127.80859
 20
9.0
 30
0.0
 11
127.80859
 21
-27.0
 31
0.0
  0
LINE
  5
B9
330
20
100
AcDbEntity
  8
0
  6
SOLID
 62
     7
100
AcDbLine
 10
127.8086
 20
-27.000002
 30
0.0
 11
128.80861
 21
-28.000004
 31
0.0
  0
LINE
  5
BA
330
20
100
AcDbEntity
  8
0
  6
SOLID
 62
     7
100
AcDbLine
 10
127.80859
 20
8.999999
 30
0.0
 11
128.80859
 21
10.0
 31
0.0
  0
LINE
  5
BB
330
20
100
AcDbEntity
  8
0
  6
SOLID
 62
     7
100
AcDbLine
 10
102.80859
 20
-26.999996
 30
0.0
 11
101.80859
 21
-27.999996
 31
0.0
  0
LINE
  5
BC
330
20
100
AcDbEntity
  8
0
  6
SOLID
 62
     7
100
AcDbLine
 10
102.8086
 20
8.999997999999999
 30
0.0
 11
101.8086
 21
9.999999
 31
0.0
  0
LINE
  5
BD
330
20
100
AcDbEntity
  8
0
  6
SOLID
 62
     7
100
AcDbLine
 10
-27.0
 20
114.57422
 30
0.0
 11
-27.0
 21
85.254501
 31
0.0
  0
LINE
  5
BE
330
20
100
AcDbEntity
  8
0
  6
SOLID
 62
     7
100
AcDbLine
 10
96.80859400000001
 20
-16.248077
 30
0.0
 11
101.30859
 21
-16.248077
 31
0.0
  0
LINE
  5
BF
330
20
100
AcDbEntity
  8
0
  6
SOLID
 62
     7
100
AcDbLine
 10
96.80859400000001
 20
-16.248077
 30
0.0
 11
96.80859400000001
 21
-19.0
 31
0.0
  0
LINE
  5
C0
330
20
100
AcDbEntity
  8
0
  6
SOLID
 62
     7
100
AcDbLine
 10
95.808586
 20
-15.49038
 30
0.0
 11
96.808586
 21
-16.248081
 31
0.0
  0
LINE
  5
C1
330
20
100
AcDbEntity
  8
0
  6
SOLID
 62
     7
100
AcDbLine
 10
96.80859400000001
 20
16.248077
 30
0.0
 11
101.30859
 21
16.248077
 31
0.0
  0
LINE
  5
C2
330
20
100
AcDbEntity
  8
0
  6
SOLID
 62
     7
100
AcDbLine
 10
96.80859400000001
 20
16.248077
 30
0.0
 11
96.80859400000001
 21
19.0
 31
0.0
  0
LINE
  5
C3
330
20
100
AcDbEntity
  8
0
  6
SOLID
 62
     7
100
AcDbLine
 10
95.808586
 20
15.490385
 30
0.0
 11
96.808586
 21
16.248081
 31
0.0
  0
LINE
  5
C4
330
20
100
AcDbEntity
  8
0
  6
SOLID
 62
     7
100
AcDbLine
 10
18.000006
 20
80.25168599999998
 30
0.0
 11
19.000006
 21
81.251694
 31
0.0
  0
LINE
  5
C5
330
20
100
AcDbEntity
  8
0
  6
SOLID
 62
     7
100
AcDbLine
 10
-19.000013
 20
81.251671
 30
0.0
 11
-18.000011
 21
80.251663
 31
0.0
  0
LINE
  5
C6
330
20
100
AcDbEntity
  8
0
  6
SOLID
 62
     7
100
AcDbLine
 10
-15.490379
 20
80.25169400000001
 30
0.0
 11
15.490391
 21
86.251694
 31
0.0
  0
LINE
  5
C7
330
20
100
AcDbEntity
  8
0
  6
SOLID
 62
     7
100
AcDbLine
 10
-15.490384
 20
86.25167799999999
 30
0.0
 11
15.490386
 21
80.251678
 31
0.0
  0
LINE
  5
C8
330
20
100
AcDbEntity
  8
0
  6
SOLID
 62
     7
100
AcDbLine
 10
16.248077
 20
81.25167799999999
 30
0.0
 11
16.248077
 21
85.25169400000001
 31
0.0
  0
LINE
  5
C9
330
20
100
AcDbEntity
  8
0
  6
SOLID
 62
     7
100
AcDbLine
 10
-19.000011
 20
85.25168599999998
 30
0.0
 11
-18.00001
 21
86.251694
 31
0.0
  0
LINE
  5
CA
330
20
100
AcDbEntity
  8
0
  6
SOLID
 62
     7
100
AcDbLine
 10
16.248077
 20
81.25167799999999
 30
0.0
 11
19.0
 21
81.25167799999999
 31
0.0
  0
LINE
  5
CB
330
20
100
AcDbEntity
  8
0
  6
SOLID
 62
     7
100
AcDbLine
 10
16.248077
 20
85.25169400000001
 30
0.0
 11
19.0
 21
85.25169400000001
 31
0.0
  0
LINE
  5
CC
330
20
100
AcDbEntity
  8
0
  6
SOLID
 62
     7
100
AcDbLine
 10
18.000021
 20
86.25167799999999
 30
0.0
 11
19.000021
 21
85.251671
 31
0.0
  0
LINE
  5
CD
330
20
100
AcDbEntity
  8
0
  6
SOLID
 62
     7
100
AcDbLine
 10
-15.490378
 20
86.25167799999999
 30
0.0
 11
-16.248075
 21
85.251701
 31
0.0
  0
LINE
  5
CE
330
20
100
AcDbEntity
  8
0
  6
SOLID
 62
     7
100
AcDbLine
 10
-15.490381
 20
80.25169400000001
 30
0.0
 11
-16.248081
 21
81.251701
 31
0.0
  0
LINE
  5
CF
330
20
100
AcDbEntity
  8
0
  6
SOLID
 62
     7
100
AcDbLine
 10
-16.248077
 20
85.25169400000001
 30
0.0
 11
-19.0
 21
85.25169400000001
 31
0.0
  0
LINE
  5
D0
330
20
100
AcDbEntity
  8
0
  6
SOLID
 62
     7
100
AcDbLine
 10
-16.248077
 20
81.25167799999999
 30
0.0
 11
-19.0
 21
81.25167799999999
 31
0.0
  0
LINE
  5
D1
330
20
100
AcDbEntity
  8
0
  6
SOLID
 62
     7
100
AcDbLine
 10
-16.248077
 20
81.25167799999999
 30
0.0
 11
-16.248077
 21
85.25169400000001
 31
0.0
  0
LINE
  5
D2
330
20
100
AcDbEntity
  8
0
  6
SOLID
 62
     7
100
AcDbLine
 10
15.490366
 20
80.25168599999998
 30
0.0
 11
16.248062
 21
81.251686
 31
0.0
  0
LINE
  5
D3
330
20
100
AcDbEntity
  8
0
  6
SOLID
 62
     7
100
AcDbLine
 10
15.490376
 20
86.251671
 30
0.0
 11
16.248068
 21
85.25169400000001
 31
0.0
  0
LINE
  5
D4
330
20
100
AcDbEntity
  8
0
  6
SOLID
 62
     7
100
AcDbLine
 10
101.30859
 20
-18.999994
 30
0.0
 11
101.80859
 21
-18.499994
 31
0.0
  0
LINE
  5
D5
330
20
100
AcDbEntity
  8
0
  6
SOLID
 62
     7
100
AcDbLine
 10
101.30859
 20
-16.248077
 30
0.0
 11
101.30859
 21
-19.0
 31
0.0
  0
LINE
  5
D6
330
20
100
AcDbEntity
  8
0
  6
SOLID
 62
     7
100
AcDbLine
 10
101.30861
 20
-16.248074
 30
0.0
 11
101.80861
 21
-15.490376
 31
0.0
  0
LINE
  5
D7
330
20
100
AcDbEntity
  8
0
  6
SOLID
 62
     7
100
AcDbLine
 10
101.30859
 20
16.248068
 30
0.0
 11
101.80859
 21
15.490367
 31
0.0
  0
LINE
  5
D8
330
20
100
AcDbEntity
  8
0
  6
SOLID
 62
     7
100
AcDbLine
 10
101.30859
 20
16.248077
 30
0.0
 11
101.30859
 21
19.0
 31
0.0
  0
LINE
  5
D9
330
20
100
AcDbEntity
  8
0
  6
SOLID
 62
     7
100
AcDbLine
 10
101.30859
 20
19.000013
 30
0.0
 11
101.8086
 21
18.500002
 31
0.0
  0
LINE
  5
DA
330
20
100
AcDbEntity
  8
0
  6
SOLID
 62
     7
100
AcDbLine
 10
101.80859
 20
15.490378
 30
0.0
 11
95.80859399999999
 21
-15.490381
 31
0.0
  0
LINE
  5
DB
330
20
100
AcDbEntity
  8
0
  6
SOLID
 62
     7
100
AcDbLine
 10
95.808586
 20
15.490381
 30
0.0
 11
101.80859
 21
-15.490373
 31
0.0
  0
LINE
  5
DC
330
20
100
AcDbEntity
  8
0
  6
SOLID
 62
     7
100
AcDbLine
 10
89.30859400000001
 20
-7.5
 30
0.0
 11
90.80859399999999
 21
-7.5
 31
0.0
  0
LINE
  5
DD
330
20
100
AcDbEntity
  8
0
  6
SOLID
 62
     7
100
AcDbLine
 10
89.30859400000001
 20
7.5
 30
0.0
 11
90.80859399999999
 21
7.5
 31
0.0
  0
LINE
  5
DE
330
20
100
AcDbEntity
  8
0
  6
SOLID
 62
     7
100
AcDbLine
 10
129.1086
 20
-10.0
 30
0.0
 11
145.67622
 21
-10.0
 31
0.0
  0
LINE
  5
DF
330
20
100
AcDbEntity
  8
0
  6
SOLID
 62
     7
100
AcDbLine
 10
129.1086
 20
10.0
 30
0.0
 11
145.67622
 21
10.0
 31
0.0
  0
LINE
  5
E0
330
20
100
AcDbEntity
  8
0
  6
SOLID
 62
     7
100
AcDbLine
 10
128.80859
 20
8.199999999999999
 30
0.0
 11
145.67622
 21
8.199999999999999
 31
0.0
  0
LINE
  5
E1
330
20
100
AcDbEntity
  8
0
  6
SOLID
 62
     7
100
AcDbLine
 10
128.80859
 20
-8.199999999999999
 30
0.0
 11
145.67622
 21
-8.199999999999999
 31
0.0
  0
LINE
  5
E2
330
20
100
AcDbEntity
  8
0
  6
SOLID
 62
     7
100
AcDbLine
 10
129.1086
 20
10.0
 30
0.0
 11
129.1086
 21
-10.0
 31
0.0
  0
LINE
  5
E3
330
20
100
AcDbEntity
  8
0
  6
SOLID
 62
     7
100
AcDbLine
 10
129.1086
 20
-10.0
 30
0.0
 11
128.80859
 21
-9.700001
 31
0.0
  0
LINE
  5
E4
330
20
100
AcDbEntity
  8
0
  6
SOLID
 62
     7
100
AcDbLine
 10
129.1086
 20
10.0
 30
0.0
 11
128.80859
 21
9.700001
 31
0.0
  0
LINE
  5
E5
330
20
100
AcDbEntity
  8
0
  6
SOLID
 62
     7
100
AcDbLine
 10
88.808594
 20
7.0
 30
0.0
 11
88.808594
 21
-7.0
 31
0.0
  0
LINE
  5
E6
330
20
100
AcDbEntity
  8
0
  6
SOLID
 62
     7
100
AcDbLine
 10
68.808594
 20
5.5
 30
0.0
 11
68.808594
 21
-5.5
 31
0.0
  0
LINE
  5
E7
330
20
100
AcDbEntity
  8
0
  6
SOLID
 62
     7
100
AcDbLine
 10
69.308594
 20
-6.0
 30
0.0
 11
88.808594
 21
-6.0
 31
0.0
  0
LINE
  5
E8
330
20
100
AcDbEntity
  8
0
  6
SOLID
 62
     7
100
AcDbLine
 10
69.308594
 20
6.0
 30
0.0
 11
88.808594
 21
6.0
 31
0.0
  0
LINE
  5
E9
330
20
100
AcDbEntity
  8
0
  6
SOLID
 62
     7
100
AcDbLine
 10
69.308594
 20
6.0
 30
0.0
 11
69.308594
 21
-6.0
 31
0.0
  0
LINE
  5
EA
330
20
100
AcDbEntity
  8
0
  6
SOLID
 62
     7
100
AcDbLine
 10
89.30859400000001
 20
7.5
 30
0.0
 11
89.30859400000001
 21
-7.5
 31
0.0
  0
LINE
  5
EB
330
20
100
AcDbEntity
  8
0
  6
SOLID
 62
     7
100
AcDbLine
 10
68.808594
 20
-5.5
 30
0.0
 11
69.308594
 21
-6.000001
 31
0.0
  0
LINE
  5
EC
330
20
100
AcDbEntity
  8
0
  6
SOLID
 62
     7
100
AcDbLine
 10
69.308594
 20
6.000001
 30
0.0
 11
68.808594
 21
5.500001
 31
0.0
  0
LINE
  5
ED
330
20
100
AcDbEntity
  8
0
  6
SOLID
 62
     7
100
AcDbLine
 10
89.30859400000001
 20
7.500000999999999
 30
0.0
 11
88.808594
 21
7.0
 31
0.0
  0
LINE
  5
EE
330
20
100
AcDbEntity
  8
0
  6
SOLID
 62
     7
100
AcDbLine
 10
88.808594
 20
-7.000000999999999
 30
0.0
 11
89.30859400000001
 21
-7.500000999999999
 31
0.0
  0
LINE
  5
EF
330
20
100
AcDbEntity
  8
0
  6
SOLID
 62
     7
100
AcDbLine
 10
88.808594
 20
-7.0
 30
0.0
 11
90.80859399999999
 21
-7.0
 31
0.0
  0
LINE
  5
F0
330
20
100
AcDbEntity
  8
0
  6
SOLID
 62
     7
100
AcDbLine
 10
88.808594
 20
7.0
 30
0.0
 11
90.80859399999999
 21
7.0
 31
0.0
  0
LINE
  5
F1
330
20
100
AcDbEntity
  8
0
  6
SOLID
 62
     7
100
AcDbLine
 10
-7.5
 20
73.75167799999999
 30
0.0
 11
-7.5
 21
75.251678
 31
0.0
  0
LINE
  5
F2
330
20
100
AcDbEntity
  8
0
  6
SOLID
 62
     7
100
AcDbLine
 10
7.5
 20
73.75167799999999
 30
0.0
 11
7.5
 21
75.251678
 31
0.0
  0
LINE
  5
F3
330
20
100
AcDbEntity
  8
0
  6
CENTER
 62
     7
100
AcDbLine
 10
0.0
 20
48.117905
 30
0.0
 11
0.0
 21
134.87866
 31
0.0
  0
LINE
  5
F4
330
20
100
AcDbEntity
  8
0
  6
SOLID
 62
     7
100
AcDbLine
 10
-5.5
 20
53.251678
 30
0.0
 11
5.5
 21
53.251678
 31
0.0
  0
LINE
  5
F5
330
20
100
AcDbEntity
  8
0
  6
SOLID
 62
     7
100
AcDbLine
 10
-7.5
 20
73.75167799999999
 30
0.0
 11
7.5
 21
73.75167799999999
 31
0.0
  0
LINE
  5
F6
330
20
100
AcDbEntity
  8
0
  6
SOLID
 62
     7
100
AcDbLine
 10
-7.0
 20
73.251678
 30
0.0
 11
-7.0
 21
75.251678
 31
0.0
  0
LINE
  5
F7
330
20
100
AcDbEntity
  8
0
  6
SOLID
 62
     7
100
AcDbLine
 10
6.0
 20
53.751678
 30
0.0
 11
6.0
 21
73.251678
 31
0.0
  0
LINE
  5
F8
330
20
100
AcDbEntity
  8
0
  6
SOLID
 62
     7
100
AcDbLine
 10
7.0
 20
73.251678
 30
0.0
 11
7.0
 21
75.251678
 31
0.0
  0
LINE
  5
F9
330
20
100
AcDbEntity
  8
0
  6
SOLID
 62
     7
100
AcDbLine
 10
-6.0
 20
53.751678
 30
0.0
 11
-6.0
 21
73.251678
 31
0.0
  0
LINE
  5
FA
330
20
100
AcDbEntity
  8
0
  6
SOLID
 62
     7
100
AcDbLine
 10
-8.199999999999999
 20
113.25168
 30
0.0
 11
-8.199999999999999
 21
128.7047
 31
0.0
  0
LINE
  5
FB
330
20
100
AcDbEntity
  8
0
  6
SOLID
 62
     7
100
AcDbLine
 10
8.199999999999999
 20
113.25168
 30
0.0
 11
8.199999999999999
 21
128.7047
 31
0.0
  0
LINE
  5
FC
330
20
100
AcDbEntity
  8
0
  6
SOLID
 62
     7
100
AcDbLine
 10
-10.0
 20
113.55168
 30
0.0
 11
-10.0
 21
128.7047
 31
0.0
  0
LINE
  5
FD
330
20
100
AcDbEntity
  8
0
  6
SOLID
 62
     7
100
AcDbLine
 10
10.0
 20
113.55168
 30
0.0
 11
10.0
 21
128.7047
 31
0.0
  0
LINE
  5
FE
330
20
100
AcDbEntity
  8
0
  6
SOLID
 62
     7
100
AcDbLine
 10
-10.0
 20
113.55168
 30
0.0
 11
10.0
 21
113.55168
 31
0.0
  0
LINE
  5
FF
330
20
100
AcDbEntity
  8
0
  6
SOLID
 62
     7
100
AcDbLine
 10
-7.0
 20
73.251678
 30
0.0
 11
7.0
 21
73.251678
 31
0.0
  0
LINE
  5
100
330
20
100
AcDbEntity
  8
0
  6
SOLID
 62
     7
100
AcDbLine
 10
-6.0
 20
53.751678
 30
0.0
 11
6.0
 21
53.751678
 31
0.0
  0
LINE
  5
101
330
20
100
AcDbEntity
  8
0
  6
SOLID
 62
     7
100
AcDbLine
 10
9.999999
 20
113.55168
 30
0.0
 11
9.699999999999999
 21
113.25168
 31
0.0
  0
LINE
  5
102
330
20
100
AcDbEntity
  8
0
  6
SOLID
 62
     7
100
AcDbLine
 10
-9.999999
 20
113.55168
 30
0.0
 11
-9.699999999999999
 21
113.25168
 31
0.0
  0
LINE
  5
103
330
20
100
AcDbEntity
  8
0
  6
SOLID
 62
     7
100
AcDbLine
 10
5.500001
 20
53.251678
 30
0.0
 11
6.000001
 21
53.751678
 31
0.0
  0
LINE
  5
104
330
20
100
AcDbEntity
  8
0
  6
SOLID
 62
     7
100
AcDbLine
 10
-6.0
 20
53.751678
 30
0.0
 11
-5.5
 21
53.251678
 31
0.0
  0
LINE
  5
105
330
20
100
AcDbEntity
  8
0
  6
SOLID
 62
     7
100
AcDbLine
 10
-7.5
 20
73.75167799999999
 30
0.0
 11
-7.000002
 21
73.251678
 31
0.0
  0
LINE
  5
106
330
20
100
AcDbEntity
  8
0
  6
SOLID
 62
     7
100
AcDbLine
 10
7.000002
 20
73.251678
 30
0.0
 11
7.5
 21
73.75167799999999
 31
0.0
  0
LINE
  5
107
330
20
100
AcDbEntity
  8
0
  6
SOLID
 62
     7
100
AcDbLine
 10
-2.5
 20
78.75167799999999
 30
0.0
 11
2.5
 21
78.75167799999999
 31
0.0
  0
LINE
  5
108
330
20
100
AcDbEntity
  8
0
  6
SOLID
 62
     7
100
AcDbLine
 10
0.75
 20
78.318665
 30
0.0
 11
0.75
 21
79.184692
 31
0.0
  0
LINE
  5
109
330
20
100
AcDbEntity
  8
0
  6
SOLID
 62
     7
100
AcDbLine
 10
-0.75
 20
78.318665
 30
0.0
 11
-0.75
 21
79.184692
 31
0.0
  0
LINE
  5
10A
330
20
100
AcDbEntity
  8
0
  6
SOLID
 62
     7
100
AcDbLine
 10
0.75
 20
79.184685
 30
0.0
 11
-0.000002
 21
79.617699
 31
0.0
  0
LINE
  5
10B
330
20
100
AcDbEntity
  8
0
  6
SOLID
 62
     7
100
AcDbLine
 10
0.0
 20
77.88565099999999
 30
0.0
 11
-0.7500020000000001
 21
78.318665
 31
0.0
  0
LINE
  5
10C
330
20
100
AcDbEntity
  8
0
  6
SOLID
 62
     7
100
AcDbLine
 10
0.000002
 20
79.617699
 30
0.0
 11
-0.75
 21
79.184685
 31
0.0
  0
LINE
  5
10D
330
20
100
AcDbEntity
  8
0
  6
SOLID
 62
     7
100
AcDbLine
 10
0.7500020000000001
 20
78.318665
 30
0.0
 11
0.0
 21
77.88565099999999
 31
0.0
  0
ARC
  5
10E
330
20
100
AcDbEntity
  8
0
  6
SOLID
 62
     7
100
AcDbCircle
 10
0.0
 20
0.0
 30
0.0
 40
12.5
100
AcDbArc
 50
343.35716
 51
16.642857
  0
ARC
  5
10F
330
20
100
AcDbEntity
  8
0
  6
SOLID
 62
     7
100
AcDbCircle
 10
0.0
 20
0.0
 30
0.0
 40
12.200002
100
AcDbArc
 50
340.62508
 51
19.374878
  0
ARC
  5
110
330
20
100
AcDbEntity
  8
0
  6
SOLID
 62
     7
100
AcDbCircle
 10
0.0
 20
0.0
 30
0.0
 40
12.200002
100
AcDbArc
 50
250.62507
 51
289.37486
  0
ARC
  5
111
330
20
100
AcDbEntity
  8
0
  6
SOLID
 62
     7
100
AcDbCircle
 10
0.0
 20
0.0
 30
0.0
 40
12.5
100
AcDbArc
 50
253.35714
 51
286.64284
  0
ARC
  5
112
330
20
100
AcDbEntity
  8
0
  6
SOLID
 62
     7
100
AcDbCircle
 10
0.0
 20
0.0
 30
0.0
 40
12.200002
100
AcDbArc
 50
160.62507
 51
199.37486
  0
ARC
  5
113
330
20
100
AcDbEntity
  8
0
  6
SOLID
 62
     7
100
AcDbCircle
 10
0.0
 20
0.0
 30
0.0
 40
12.5
100
AcDbArc
 50
163.35714
 51
196.64284
  0
ARC
  5
114
330
20
100
AcDbEntity
  8
0
  6
SOLID
 62
     7
100
AcDbCircle
 10
0.0
 20
0.0
 30
0.0
 40
12.200002
100
AcDbArc
 50
70.625064
 51
109.37486
  0
ARC
  5
115
330
20
100
AcDbEntity
  8
0
  6
SOLID
 62
     7
100
AcDbCircle
 10
0.0
 20
0.0
 30
0.0
 40
12.5
100
AcDbArc
 50
73.35714
 51
106.64284
  0
CIRCLE
  5
116
330
20
100
AcDbEntity
  8
0
  6
SOLID
 62
     7
100
AcDbCircle
 10
0.0
 20
0.0
 30
0.0
 40
7.0
  0
CIRCLE
  5
117
330
20
100
AcDbEntity
  8
0
  6
SOLID
 62
     7
100
AcDbCircle
 10
0.0
 20
0.0
 30
0.0
 40
7.5
  0
CIRCLE
  5
118
330
20
100
AcDbEntity
  8
0
  6
SOLID
 62
     7
100
AcDbCircle
 10
-27.0
 20
107.25168
 30
0.0
 40
3.299998999999999
  0
CIRCLE
  5
119
330
20
100
AcDbEntity
  8
0
  6
SOLID
 62
     7
100
AcDbCircle
 10
-27.0
 20
92.25167799999999
 30
0.0
 40
3.299998999999999
  0
CIRCLE
  5
11A
330
20
100
AcDbEntity
  8
0
  6
SOLID
 62
     7
100
AcDbCircle
 10
27.0
 20
107.25168
 30
0.0
 40
3.299998999999999
  0
CIRCLE
  5
11B
330
20
100
AcDbEntity
  8
0
  6
SOLID
 62
     7
100
AcDbCircle
 10
27.0
 20
92.25167799999999
 30
0.0
 40
3.299998999999999
  0
CIRCLE
  5
11C
330
20
100
AcDbEntity
  8
0
  6
SOLID
 62
     7
100
AcDbCircle
 10
27.0
 20
0.0
 30
0.0
 40
2.75
  0
CIRCLE
  5
11D
330
20
100
AcDbEntity
  8
0
  6
SOLID
 62
     7
100
AcDbCircle
 10
27.0
 20
-18.0
 30
0.0
 40
2.75
  0
CIRCLE
  5
11E
330
20
100
AcDbEntity
  8
0
  6
SOLID
 62
     7
100
AcDbCircle
 10
-27.0
 20
0.0
 30
0.0
 40
2.75
  0
CIRCLE
  5
11F
330
20
100
AcDbEntity
  8
0
  6
SOLID
 62
     7
100
AcDbCircle
 10
-27.0
 20
-18.0
 30
0.0
 40
2.75
  0
CIRCLE
  5
120
330
20
100
AcDbEntity
  8
0
  6
SOLID
 62
     7
100
AcDbCircle
 10
0.0
 20
0.0
 30
0.0
 40
14.0
  0
CIRCLE
  5
121
330
20
100
AcDbEntity
  8
0
  6
SOLID
 62
     7
100
AcDbCircle
 10
13.813721
 20
13.813461
 30
0.0
 40
3.9
  0
CIRCLE
  5
122
330
20
100
AcDbEntity
  8
0
  6
SOLID
 62
     7
100
AcDbCircle
 10
13.813721
 20
13.813461
 30
0.0
 40
3.5
  0
CIRCLE
  5
123
330
20
100
AcDbEntity
  8
0
  6
SOLID
 62
     7
100
AcDbCircle
 10
-13.813477
 20
13.813705
 30
0.0
 40
3.9
  0
CIRCLE
  5
124
330
20
100
AcDbEntity
  8
0
  6
SOLID
 62
     7
100
AcDbCircle
 10
-13.813477
 20
13.813705
 30
0.0
 40
3.5
  0
CIRCLE
  5
125
330
20
100
AcDbEntity
  8
0
  6
SOLID
 62
     7
100
AcDbCircle
 10
-13.813477
 20
-13.813477
 30
0.0
 40
3.9
  0
CIRCLE
  5
126
330
20
100
AcDbEntity
  8
0
  6
SOLID
 62
     7
100
AcDbCircle
 10
-13.813477
 20
-13.813477
 30
0.0
 40
3.5
  0
CIRCLE
  5
127
330
20
100
AcDbEntity
  8
0
  6
SOLID
 62
     7
100
AcDbCircle
 10
13.813477
 20
-13.813492
 30
0.0
 40
3.9
  0
CIRCLE
  5
128
330
20
100
AcDbEntity
  8
0
  6
SOLID
 62
     7
100
AcDbCircle
 10
13.813477
 20
-13.813492
 30
0.0
 40
3.5
  0
ARC
  5
129
330
20
100
AcDbEntity
  8
0
  6
SOLID
 62
     7
100
AcDbCircle
 10
2.5
 20
2.5
 30
0.0
 40
21.0
100
AcDbArc
 50
38.213208
 51
51.78678800000001
  0
ARC
  5
12A
330
20
100
AcDbEntity
  8
0
  6
SOLID
 62
     7
100
AcDbCircle
 10
-2.5
 20
-2.5
 30
0.0
 40
21.0
100
AcDbArc
 50
218.21325
 51
231.7868
  0
ARC
  5
12B
330
20
100
AcDbEntity
  8
0
  6
SOLID
 62
     7
100
AcDbCircle
 10
2.5
 20
-2.5
 30
0.0
 40
21.0
100
AcDbArc
 50
308.21321
 51
321.78679
  0
ARC
  5
12C
330
20
100
AcDbEntity
  8
0
  6
SOLID
 62
     7
100
AcDbCircle
 10
-2.5
 20
2.5
 30
0.0
 40
21.0
100
AcDbArc
 50
128.2132
 51
141.78675
  0
ARC
  5
12D
330
20
100
AcDbEntity
  8
0
  6
SOLID
 62
     7
100
AcDbCircle
 10
0.0
 20
0.0
 30
0.0
 40
25.0
100
AcDbArc
 50
40.535803
 51
49.46419900000001
  0
ARC
  5
12E
330
20
100
AcDbEntity
  8
0
  6
SOLID
 62
     7
100
AcDbCircle
 10
0.0
 20
0.0
 30
0.0
 40
25.0
100
AcDbArc
 50
220.5358
 51
229.4642
  0
ARC
  5
12F
330
20
100
AcDbEntity
  8
0
  6
SOLID
 62
     7
100
AcDbCircle
 10
0.0
 20
0.0
 30
0.0
 40
25.0
100
AcDbArc
 50
310.5358
 51
319.4642
  0
ARC
  5
130
330
20
100
AcDbEntity
  8
0
  6
SOLID
 62
     7
100
AcDbCircle
 10
0.0
 20
0.0
 30
0.0
 40
25.0
100
AcDbArc
 50
130.5358
 51
139.4642
  0
CIRCLE
  5
131
330
20
100
AcDbEntity
  8
0
  6
SOLID
 62
     7
100
AcDbCircle
 10
0.0
 20
0.0
 30
0.0
 40
19.5
  0
CIRCLE
  5
132
330
20
100
AcDbEntity
  8
0
  6
SOLID
 62
     7
100
AcDbCircle
 10
0.0
 20
0.0
 30
0.0
 40
14.5
  0
CIRCLE
  5
133
330
20
100
AcDbEntity
  8
0
  6
SOLID
 62
     7
100
AcDbCircle
 10
-27.0
 20
107.25168
 30
0.0
 40
5.5
  0
CIRCLE
  5
134
330
20
100
AcDbEntity
  8
0
  6
SOLID
 62
     7
100
AcDbCircle
 10
-27.0
 20
92.25167799999999
 30
0.0
 40
5.5
  0
CIRCLE
  5
135
330
20
100
AcDbEntity
  8
0
  6
SOLID
 62
     7
100
AcDbCircle
 10
27.0
 20
92.25167799999999
 30
0.0
 40
5.5
  0
CIRCLE
  5
136
330
20
100
AcDbEntity
  8
0
  6
SOLID
 62
     7
100
AcDbCircle
 10
27.0
 20
107.25168
 30
0.0
 40
5.5
  0
CIRCLE
  5
137
330
20
100
AcDbEntity
  8
0
  6
SOLID
 62
     7
100
AcDbCircle
 10
0.0
 20
78.75167799999999
 30
0.0
 40
1.5
  0
CIRCLE
  5
138
330
20
100
AcDbEntity
  8
0
  6
SOLID
 62
     7
100
AcDbCircle
 10
0.0
 20
78.75167799999999
 30
0.0
 40
1.25
  0
CIRCLE
  5
139
330
20
100
AcDbEntity
  8
0
  6
SOLID
 62
     7
100
AcDbCircle
 10
0.0
 20
78.75167799999999
 30
0.0
 40
0.8660250000000001
  0
TEXT
  5
13A
330
20
100
AcDbEntity
  8
LEVEL0
  6
SOLID
 62
     7
100
AcDbText
 10
51.165985
 20
114.051559
 30
0.0
 40
7.0
  1
BK15 
 41
0.718358
100
AcDbText
  0
ENDSEC
  0
SECTION
  2
OBJECTS
  0
DICTIONARY
  5
C
330
0
100
AcDbDictionary
281
     1
  3
ACAD_COLOR
350
1B
  3
ACAD_GROUP
350
D
  3
ACAD_LAYOUT
350
19
  3
ACAD_MATERIAL
350
1A
  3
ACAD_MLINESTYLE
350
16
  3
ACAD_PLOTSETTINGS
350
18
  3
ACAD_PLOTSTYLENAME
350
E
  3
ACDBHEADERROUNDTRIPXREC
350
141
  3
AcDbVariableDictionary
350
13D
  0
DICTIONARY
  5
1B
102
{ACAD_REACTORS
330
C
102
}
330
C
100
AcDbDictionary
281
     1
  0
DICTIONARY
  5
D
102
{ACAD_REACTORS
330
C
102
}
330
C
100
AcDbDictionary
281
     1
  0
DICTIONARY
  5
19
102
{ACAD_REACTORS
330
C
102
}
330
C
100
AcDbDictionary
281
     1
  3
Model
350
23
  3
配置1
350
1F
  0
DICTIONARY
  5
1A
102
{ACAD_REACTORS
330
C
102
}
330
C
100
AcDbDictionary
281
     1
  0
DICTIONARY
  5
16
102
{ACAD_REACTORS
330
C
102
}
330
C
100
AcDbDictionary
281
     1
  3
Standard
350
17
  0
DICTIONARY
  5
18
102
{ACAD_REACTORS
330
C
102
}
330
C
100
AcDbDictionary
281
     1
  0
ACDBDICTIONARYWDFLT
  5
E
102
{ACAD_REACTORS
330
C
102
}
330
C
100
AcDbDictionary
281
     1
  3
Normal
350
F
100
AcDbDictionaryWithDefault
340
F
  0
DICTIONARY
  5
141
102
{ACAD_REACTORS
330
C
102
}
330
C
100
AcDbDictionary
281
     1
  3
COLORDICT
350
143
  3
MATERIALDICT
350
142
  0
DICTIONARY
  5
13D
102
{ACAD_REACTORS
330
C
102
}
330
C
100
AcDbDictionary
281
     1
  3
DIMASSOC
350
13E
  3
PROJECTNAME
350
13F
  0
LAYOUT
  5
23
102
{ACAD_XDICTIONARY
360
146
102
}
102
{ACAD_REACTORS
330
19
102
}
330
19
100
AcDbPlotSettings
  1

  2
RICOH imagio MF-P355
  4

  6

 40
0.0
 41
0.0
 42
0.0
 43
0.0
 44
0.0
 45
0.0
 46
0.0
 47
0.0
 48
0.0
 49
0.0
140
0.0
141
0.0
142
1.0
143
1.0
 70
  1712
 72
     0
 73
     0
 74
     0
  7

 75
     0
147
1.0
148
0.0
149
0.0
100
AcDbLayout
  1
Model
 70
     1
 71
     0
 10
0.0
 20
0.0
 11
12.0
 21
9.0
 12
0.0
 22
0.0
 32
0.0
 14
0.0
 24
0.0
 34
0.0
 15
0.0
 25
0.0
 35
0.0
146
0.0
 13
0.0
 23
0.0
 33
0.0
 16
1.0
 26
0.0
 36
0.0
 17
0.0
 27
1.0
 37
0.0
 76
     0
330
20
  0
LAYOUT
  5
1F
102
{ACAD_XDICTIONARY
360
144
102
}
102
{ACAD_REACTORS
330
19
102
}
330
19
100
AcDbPlotSettings
  1

  2
RICOH imagio MF-P355
  4

  6

 40
0.0
 41
0.0
 42
0.0
 43
0.0
 44
0.0
 45
0.0
 46
0.0
 47
0.0
 48
0.0
 49
0.0
140
0.0
141
0.0
142
1.0
143
1.0
 70
   688
 72
     0
 73
     0
 74
     5
  7

 75
    16
147
1.0
148
0.0
149
0.0
100
AcDbLayout
  1
配置1
 70
     1
 71
     1
 10
0.0
 20
0.0
 11
12.0
 21
9.0
 12
0.0
 22
0.0
 32
0.0
 14
1.000000000000000E+20
 24
1.000000000000000E+20
 34
1.000000000000000E+20
 15
-1.000000000000000E+20
 25
-1.000000000000000E+20
 35
-1.000000000000000E+20
146
0.0
 13
0.0
 23
0.0
 33
0.0
 16
1.0
 26
0.0
 36
0.0
 17
0.0
 27
1.0
 37
0.0
 76
     0
330
1C
  0
MLINESTYLE
  5
17
102
{ACAD_REACTORS
330
16
102
}
330
16
100
AcDbMlineStyle
  2
STANDARD
 70
     0
  3

 62
   256
 51
90.0
 52
90.0
 71
     2
 49
0.5
 62
   256
  6
BYLAYER
 49
-0.5
 62
   256
  6
BYLAYER
  0
ACDBPLACEHOLDER
  5
F
102
{ACAD_REACTORS
330
E
102
}
330
E
  0
XRECORD
  5
143
102
{ACAD_REACTORS
330
141
102
}
330
141
100
AcDbXrecord
280
     1
340
1B
  0
XRECORD
  5
142
102
{ACAD_REACTORS
330
141
102
}
330
141
100
AcDbXrecord
280
     1
340
1A
  0
DICTIONARYVAR
  5
13E
102
{ACAD_REACTORS
330
13D
102
}
330
13D
100
DictionaryVariables
280
     0
  1
1
  0
DICTIONARYVAR
  5
13F
102
{ACAD_REACTORS
330
13D
102
}
330
13D
100
DictionaryVariables
280
     0
  1

  0
DICTIONARY
  5
146
330
23
100
AcDbDictionary
280
     1
281
     1
  3
ACAD_XREC_ROUNDTRIP
360
147
  0
DICTIONARY
  5
144
330
1F
100
AcDbDictionary
280
     1
281
     1
  3
ACAD_XREC_ROUNDTRIP
360
145
  0
XRECORD
  5
147
102
{ACAD_REACTORS
330
146
102
}
330
146
100
AcDbXrecord
280
     1
102
SHADEPLOT
 70
     0
102
SHADEPLOTRESLEVEL
 70
     2
102
SHADEPLOTCUSTOMDPI
 70
   300
  0
XRECORD
  5
145
102
{ACAD_REACTORS
330
144
102
}
330
144
100
AcDbXrecord
280
     1
102
SHADEPLOT
 70
     0
102
SHADEPLOTRESLEVEL
 70
     2
102
SHADEPLOTCUSTOMDPI
 70
   300
  0
ENDSEC
  0
EOF
