  0
SECTION
  2
HEADER
  9
$SPLINETYPE
 70
     6
  9
$FILLMODE
 70
     1
  9
$LTSCALE
 40
1.000000
  0
ENDSEC
  0
SECTION
  2
TABLES
  0
TABLE
  2
LTYPE
 70
     8
  0
LTYPE
  2
SOLID
 70
    64
  3

 72
    65
 73
     0
 40
0.000000
  0
LTYPE
  2
DASH
 70
    64
  3

 72
    65
 73
     2
 40
8.000000
 49
4.000000
 49
-4.000000
  0
LTYPE
  2
CENTER
 70
    64
  3

 72
    65
 73
     4
 40
8.000000
 49
4.500000
 49
-1.500000
 49
0.500000
 49
-1.500000
  0
LTYPE
  2
L_DASH
 70
    64
  3

 72
    65
 73
     2
 40
8.000000
 49
6.000000
 49
-2.000000
  0
LTYPE
  2
FONT_5
 70
    64
  3

 72
    65
 73
     8
 40
8.000000
 49
0.500000
 49
-1.500000
 49
0.500000
 49
-1.500000
 49
0.500000
 49
-1.500000
 49
0.500000
 49
-1.500000
  0
LTYPE
  2
FONT_6
 70
    64
  3

 72
    65
 73
    11
 40
8.000000
 49
0.500000
 49
-1.000000
 49
0.500000
 49
-1.000000
 49
0.500000
 49
-1.000000
 49
0.500000
 49
-1.000000
 49
0.500000
 49
-1.000000
 49
0.500000
  0
LTYPE
  2
FONT_7
 70
    64
  3

 72
    65
 73
     4
 40
8.000000
 49
1.000000
 49
-5.000000
 49
1.000000
 49
-1.000000
  0
LTYPE
  2
FONT_8
 70
    64
  3

 72
    65
 73
     4
 40
8.000000
 49
1.000000
 49
-5.000000
 49
1.000000
 49
-1.000000
  0
ENDTAB
  0
TABLE
  2
LAYER
 70
     2
  0
LAYER
  2
LEVEL0
 70
    64
 62
     7
  6
SOLID
  0
LAYER
  2
0
 70
    64
 62
     7
  6
SOLID
  0
ENDTAB
  0
TABLE
  2
STYLE
 70
     0
  0
STYLE
  2
STANDARD
 70
    64
 40
0.000000
 41
1.000000
 50
0.000000
 71
     0
 42
0.000000
  3
txt.shx
  4

  0
ENDTAB
  0
TABLE
  2
UCS
 70
     0
  0
ENDTAB
  0
ENDSEC
  0
SECTION
  2
BLOCKS
  0
ENDSEC
  0
SECTION
  2
ENTITIES
  0
LINE
  8
0
  6
SOLID
 62
     7
 10
61.654808
 20
-4.009350
 30
0.000000
 11
62.154823
 21
-4.509316
 31
0.000000
  0
LINE
  8
0
  6
SOLID
 62
     7
 10
61.654663
 20
-4.009491
 30
0.000000
 11
61.654663
 21
4.009506
 31
0.000000
  0
LINE
  8
0
  6
SOLID
 62
     7
 10
55.654526
 20
-4.009627
 30
0.000000
 11
55.154491
 21
-4.509661
 31
0.000000
  0
LINE
  8
0
  6
SOLID
 62
     7
 10
55.654621
 20
-25.689043
 30
0.000000
 11
55.154610
 21
-25.189032
 31
0.000000
  0
LINE
  8
0
  6
SOLID
 62
     7
 10
61.654663
 20
-25.688980
 30
0.000000
 11
55.654663
 21
-25.688980
 31
0.000000
  0
LINE
  8
0
  6
SOLID
 62
     7
 10
61.654663
 20
-4.009491
 30
0.000000
 11
55.654663
 21
-4.009491
 31
0.000000
  0
LINE
  8
0
  6
SOLID
 62
     7
 10
69.654663
 20
-16.900000
 30
0.000000
 11
62.554657
 21
-16.900000
 31
0.000000
  0
LINE
  8
0
  6
SOLID
 62
     7
 10
61.654778
 20
26.000099
 30
0.000000
 11
62.154762
 21
25.500061
 31
0.000000
  0
LINE
  8
0
  6
SOLID
 62
     7
 10
62.154568
 20
-25.500103
 30
0.000000
 11
61.654537
 21
-26.000137
 31
0.000000
  0
LINE
  8
0
  6
SOLID
 62
     7
 10
61.654663
 20
-26.000000
 30
0.000000
 11
61.654663
 21
-25.688980
 31
0.000000
  0
LINE
  8
0
  6
SOLID
 62
     7
 10
62.154663
 20
-25.500000
 30
0.000000
 11
62.154663
 21
25.500162
 31
0.000000
  0
LINE
  8
0
  6
SOLID
 62
     7
 10
55.154751
 20
-25.499928
 30
0.000000
 11
55.654682
 21
-25.999931
 31
0.000000
  0
LINE
  8
0
  6
SOLID
 62
     7
 10
55.654510
 20
25.999844
 30
0.000000
 11
55.154568
 21
25.499895
 31
0.000000
  0
LINE
  8
0
  6
SOLID
 62
     7
 10
55.654663
 20
-26.000000
 30
0.000000
 11
55.654663
 21
-25.688980
 31
0.000000
  0
LINE
  8
0
  6
SOLID
 62
     7
 10
61.654663
 20
26.000000
 30
0.000000
 11
55.654663
 21
26.000000
 31
0.000000
  0
LINE
  8
0
  6
SOLID
 62
     7
 10
55.154663
 20
-25.500000
 30
0.000000
 11
55.154663
 21
25.500000
 31
0.000000
  0
LINE
  8
0
  6
SOLID
 62
     7
 10
70.154663
 20
-16.400000
 30
0.000000
 11
70.154663
 21
16.599997
 31
0.000000
  0
LINE
  8
0
  6
SOLID
 62
     7
 10
61.654663
 20
-26.000000
 30
0.000000
 11
55.654541
 21
-26.000000
 31
0.000000
  0
LINE
  8
0
  6
CENTER
 62
     7
 10
0.000000
 20
28.999954
 30
0.000000
 11
0.000000
 21
-29.000000
 31
0.000000
  0
LINE
  8
0
  6
CENTER
 62
     7
 10
-29.000000
 20
0.000000
 30
0.000000
 11
29.000000
 21
0.000000
 31
0.000000
  0
LINE
  8
0
  6
SOLID
 62
     7
 10
4.009605
 20
25.688887
 30
0.000000
 11
25.688982
 21
4.009507
 31
0.000000
  0
LINE
  8
0
  6
SOLID
 62
     7
 10
-25.688881
 20
-4.009599
 30
0.000000
 11
-4.009502
 21
-25.688978
 31
0.000000
  0
LINE
  8
0
  6
SOLID
 62
     7
 10
-25.688967
 20
4.009485
 30
0.000000
 11
-4.009481
 21
25.688971
 31
0.000000
  0
LINE
  8
0
  6
SOLID
 62
     7
 10
4.009496
 20
-25.688978
 30
0.000000
 11
25.688982
 21
-4.009492
 31
0.000000
  0
LINE
  8
0
  6
SOLID
 62
     7
 10
61.654663
 20
26.000000
 30
0.000000
 11
61.654663
 21
25.688995
 31
0.000000
  0
LINE
  8
0
  6
SOLID
 62
     7
 10
61.654663
 20
25.688995
 30
0.000000
 11
55.654663
 21
25.688995
 31
0.000000
  0
LINE
  8
0
  6
CENTER
 62
     7
 10
72.654663
 20
0.000000
 30
0.000000
 11
52.654663
 21
0.000000
 31
0.000000
  0
LINE
  8
0
  6
SOLID
 62
     7
 10
55.654663
 20
26.000000
 30
0.000000
 11
55.654663
 21
25.688995
 31
0.000000
  0
LINE
  8
0
  6
SOLID
 62
     7
 10
61.654663
 20
4.009506
 30
0.000000
 11
55.654663
 21
4.009506
 31
0.000000
  0
LINE
  8
0
  6
SOLID
 62
     7
 10
61.654812
 20
4.009369
 30
0.000000
 11
62.154816
 21
4.509325
 31
0.000000
  0
LINE
  8
0
  6
SOLID
 62
     7
 10
61.654667
 20
25.689020
 30
0.000000
 11
62.154701
 21
25.188990
 31
0.000000
  0
LINE
  8
0
  6
SOLID
 62
     7
 10
55.654541
 20
4.009638
 30
0.000000
 11
55.154507
 21
4.509672
 31
0.000000
  0
LINE
  8
0
  6
SOLID
 62
     7
 10
55.654629
 20
25.689039
 30
0.000000
 11
55.154629
 21
25.189039
 31
0.000000
  0
LINE
  8
0
  6
SOLID
 62
     7
 10
55.154678
 20
4.509493
 30
0.000000
 11
62.154678
 21
25.188997
 31
0.000000
  0
LINE
  8
0
  6
SOLID
 62
     7
 10
69.654663
 20
-16.900000
 30
0.000000
 11
69.654663
 21
17.099997
 31
0.000000
  0
LINE
  8
0
  6
SOLID
 62
     7
 10
55.154663
 20
25.188971
 30
0.000000
 11
62.154583
 21
4.509671
 31
0.000000
  0
LINE
  8
0
  6
SOLID
 62
     7
 10
55.654663
 20
-4.009491
 30
0.000000
 11
55.654663
 21
4.009506
 31
0.000000
  0
LINE
  8
0
  6
SOLID
 62
     7
 10
55.154686
 20
-4.509491
 30
0.000000
 11
62.154686
 21
-25.188988
 31
0.000000
  0
LINE
  8
0
  6
SOLID
 62
     7
 10
55.154675
 20
-25.188963
 30
0.000000
 11
62.154594
 21
-4.509657
 31
0.000000
  0
LINE
  8
0
  6
SOLID
 62
     7
 10
61.654655
 20
-25.689011
 30
0.000000
 11
62.154690
 21
-25.188980
 31
0.000000
  0
LINE
  8
0
  6
SOLID
 62
     7
 10
69.654663
 20
17.099997
 30
0.000000
 11
62.554657
 21
17.099997
 31
0.000000
  0
LINE
  8
0
  6
SOLID
 62
     7
 10
69.654663
 20
17.099997
 30
0.000000
 11
70.154663
 21
16.599997
 31
0.000000
  0
LINE
  8
0
  6
SOLID
 62
     7
 10
70.154663
 20
-16.400002
 30
0.000000
 11
69.654663
 21
-16.900002
 31
0.000000
  0
LINE
  8
0
  6
L_DASH
 62
     7
 10
55.154663
 20
25.000000
 30
0.000000
 11
59.154663
 21
25.000000
 31
0.000000
  0
LINE
  8
0
  6
L_DASH
 62
     7
 10
59.154663
 20
23.250000
 30
0.000000
 11
62.154663
 21
23.250000
 31
0.000000
  0
LINE
  8
0
  6
SOLID
 62
     7
 10
53.154663
 20
21.000000
 30
0.000000
 11
64.154663
 21
21.000000
 31
0.000000
  0
LINE
  8
0
  6
L_DASH
 62
     7
 10
59.154663
 20
18.750000
 30
0.000000
 11
62.154663
 21
18.750000
 31
0.000000
  0
LINE
  8
0
  6
L_DASH
 62
     7
 10
55.154663
 20
17.000000
 30
0.000000
 11
59.154663
 21
17.000000
 31
0.000000
  0
LINE
  8
0
  6
SOLID
 62
     7
 10
53.154663
 20
-21.000000
 30
0.000000
 11
64.154663
 21
-21.000000
 31
0.000000
  0
LINE
  8
0
  6
L_DASH
 62
     7
 10
59.154663
 20
17.000000
 30
0.000000
 11
59.154663
 21
25.000000
 31
0.000000
  0
ARC
  8
0
  6
SOLID
 62
     7
 10
0.000000
 20
0.000000
 30
0.000000
 40
25.500000
 50
169.560320
 51
190.439720
  0
CIRCLE
  8
0
  6
CENTER
 62
     7
 10
0.000000
 20
0.000000
 30
0.000000
 40
21.000000
  0
ARC
  8
0
  6
SOLID
 62
     7
 10
0.000000
 20
0.000000
 30
0.000000
 40
25.500000
 50
79.560284
 51
100.439680
  0
ARC
  8
0
  6
SOLID
 62
     7
 10
0.000000
 20
0.000000
 30
0.000000
 40
26.000000
 50
81.128932
 51
98.871032
  0
ARC
  8
0
  6
SOLID
 62
     7
 10
0.000000
 20
0.000000
 30
0.000000
 40
26.000000
 50
261.128910
 51
278.871070
  0
ARC
  8
0
  6
SOLID
 62
     7
 10
0.000000
 20
0.000000
 30
0.000000
 40
25.500000
 50
259.560320
 51
280.439660
  0
ARC
  8
0
  6
SOLID
 62
     7
 10
0.000000
 20
0.000000
 30
0.000000
 40
26.000000
 50
171.128970
 51
188.871070
  0
ARC
  8
0
  6
SOLID
 62
     7
 10
0.000000
 20
0.000000
 30
0.000000
 40
25.500000
 50
349.560320
 51
10.439678
  0
ARC
  8
0
  6
SOLID
 62
     7
 10
0.000000
 20
0.000000
 30
0.000000
 40
26.000000
 50
351.128930
 51
8.871070
  0
CIRCLE
  8
0
  6
SOLID
 62
     7
 10
0.000000
 20
0.000000
 30
0.000000
 40
7.500000
  0
CIRCLE
  8
0
  6
SOLID
 62
     7
 10
0.000000
 20
0.000000
 30
0.000000
 40
10.500000
  0
CIRCLE
  8
0
  6
SOLID
 62
     7
 10
0.000000
 20
0.000000
 30
0.000000
 40
13.000000
  0
CIRCLE
  8
0
  6
SOLID
 62
     7
 10
0.000000
 20
21.000000
 30
0.000000
 40
2.250000
  0
CIRCLE
  8
0
  6
SOLID
 62
     7
 10
0.000000
 20
21.000000
 30
0.000000
 40
4.000000
  0
CIRCLE
  8
0
  6
SOLID
 62
     7
 10
0.000000
 20
0.000000
 30
0.000000
 40
5.000000
  0
ARC
  8
0
  6
SOLID
 62
     7
 10
62.554657
 20
17.500006
 30
0.000000
 40
0.400000
 50
179.999990
 51
270.000000
  0
CIRCLE
  8
0
  6
SOLID
 62
     7
 10
0.000000
 20
0.000061
 30
0.000000
 40
13.500054
  0
ARC
  8
0
  6
SOLID
 62
     7
 10
62.554657
 20
-17.299994
 30
0.000000
 40
0.400000
 50
89.999996
 51
180.000010
  0
TEXT
  8
0
  6
SOLID
 62
     7
 10
23.332401
 20
28.459120
 30
0.000000
 40
3.600000
  1
FF 12
 50
0.000000
 41
0.715577
  0
ENDSEC
  0
EOF
