  0
SECTION
  2
HEADER
  9
$SPLINETYPE
 70
     6
  9
$FILLMODE
 70
     1
  9
$LTSCALE
 40
1.000000
  0
ENDSEC
  0
SECTION
  2
TABLES
  0
TABLE
  2
LTYPE
 70
     8
  0
LTYPE
  2
SOLID
 70
    64
  3

 72
    65
 73
     0
 40
0.000000
  0
LTYPE
  2
DASH
 70
    64
  3

 72
    65
 73
     2
 40
8.000000
 49
4.000000
 49
-4.000000
  0
LTYPE
  2
CENTER
 70
    64
  3

 72
    65
 73
     4
 40
8.000000
 49
4.500000
 49
-1.500000
 49
0.500000
 49
-1.500000
  0
LTYPE
  2
L_DASH
 70
    64
  3

 72
    65
 73
     2
 40
8.000000
 49
6.000000
 49
-2.000000
  0
LTYPE
  2
FONT_5
 70
    64
  3

 72
    65
 73
     8
 40
8.000000
 49
0.500000
 49
-1.500000
 49
0.500000
 49
-1.500000
 49
0.500000
 49
-1.500000
 49
0.500000
 49
-1.500000
  0
LTYPE
  2
FONT_6
 70
    64
  3

 72
    65
 73
    11
 40
8.000000
 49
0.500000
 49
-1.000000
 49
0.500000
 49
-1.000000
 49
0.500000
 49
-1.000000
 49
0.500000
 49
-1.000000
 49
0.500000
 49
-1.000000
 49
0.500000
  0
LTYPE
  2
FONT_7
 70
    64
  3

 72
    65
 73
     4
 40
8.000000
 49
1.000000
 49
-5.000000
 49
1.000000
 49
-1.000000
  0
LTYPE
  2
FONT_8
 70
    64
  3

 72
    65
 73
     4
 40
8.000000
 49
1.000000
 49
-5.000000
 49
1.000000
 49
-1.000000
  0
ENDTAB
  0
TABLE
  2
LAYER
 70
     2
  0
LAYER
  2
LEVEL0
 70
    64
 62
     7
  6
SOLID
  0
LAYER
  2
0
 70
    64
 62
     7
  6
SOLID
  0
ENDTAB
  0
TABLE
  2
STYLE
 70
     0
  0
STYLE
  2
STANDARD
 70
    64
 40
0.000000
 41
1.000000
 50
0.000000
 71
     0
 42
0.000000
  3
txt.shx
  4

  0
ENDTAB
  0
TABLE
  2
UCS
 70
     0
  0
ENDTAB
  0
ENDSEC
  0
SECTION
  2
BLOCKS
  0
ENDSEC
  0
SECTION
  2
ENTITIES
  0
LINE
  8
0
  6
SOLID
 62
     7
 10
86.654663
 20
-20.000000
 30
0.000000
 11
79.554657
 21
-20.000000
 31
0.000000
  0
LINE
  8
0
  6
SOLID
 62
     7
 10
70.654716
 20
31.500021
 30
0.000000
 11
70.154686
 21
30.999987
 31
0.000000
  0
LINE
  8
0
  6
SOLID
 62
     7
 10
70.154701
 20
-30.999981
 30
0.000000
 11
70.654640
 21
-31.499981
 31
0.000000
  0
LINE
  8
0
  6
SOLID
 62
     7
 10
78.654663
 20
-31.500000
 30
0.000000
 11
78.654663
 21
-30.959549
 31
0.000000
  0
LINE
  8
0
  6
SOLID
 62
     7
 10
78.654709
 20
-31.499968
 30
0.000000
 11
79.154655
 21
-31.000019
 31
0.000000
  0
LINE
  8
0
  6
SOLID
 62
     7
 10
86.654663
 20
20.000000
 30
0.000000
 11
79.554657
 21
20.000000
 31
0.000000
  0
LINE
  8
0
  6
SOLID
 62
     7
 10
78.654633
 20
31.499945
 30
0.000000
 11
79.154617
 21
30.999910
 31
0.000000
  0
LINE
  8
0
  6
SOLID
 62
     7
 10
79.154663
 20
-31.000000
 30
0.000000
 11
79.154663
 21
30.999866
 31
0.000000
  0
LINE
  8
0
  6
SOLID
 62
     7
 10
70.654663
 20
-31.500000
 30
0.000000
 11
70.654663
 21
-30.959549
 31
0.000000
  0
LINE
  8
0
  6
SOLID
 62
     7
 10
78.654663
 20
31.500000
 30
0.000000
 11
70.654663
 21
31.500000
 31
0.000000
  0
LINE
  8
0
  6
SOLID
 62
     7
 10
78.654663
 20
-31.500000
 30
0.000000
 11
70.654541
 21
-31.500000
 31
0.000000
  0
LINE
  8
0
  6
SOLID
 62
     7
 10
87.154663
 20
-19.500000
 30
0.000000
 11
87.154663
 21
19.499969
 31
0.000000
  0
LINE
  8
0
  6
SOLID
 62
     7
 10
70.154663
 20
-31.000000
 30
0.000000
 11
70.154663
 21
31.000000
 31
0.000000
  0
LINE
  8
0
  6
SOLID
 62
     7
 10
5.810007
 20
30.959532
 30
0.000000
 11
30.959536
 21
5.810004
 31
0.000000
  0
LINE
  8
0
  6
SOLID
 62
     7
 10
-30.959549
 20
-5.810023
 30
0.000000
 11
-5.810020
 21
-30.959551
 31
0.000000
  0
LINE
  8
0
  6
SOLID
 62
     7
 10
-30.959526
 20
5.809958
 30
0.000000
 11
-5.809977
 21
30.959507
 31
0.000000
  0
LINE
  8
0
  6
CENTER
 62
     7
 10
0.000000
 20
34.999939
 30
0.000000
 11
0.000000
 21
-35.000000
 31
0.000000
  0
LINE
  8
0
  6
SOLID
 62
     7
 10
5.809983
 20
-30.959551
 30
0.000000
 11
30.959532
 21
-5.810002
 31
0.000000
  0
LINE
  8
0
  6
CENTER
 62
     7
 10
-35.000000
 20
0.000000
 30
0.000000
 11
35.000000
 21
0.000000
 31
0.000000
  0
LINE
  8
0
  6
SOLID
 62
     7
 10
70.154678
 20
6.310014
 30
0.000000
 11
79.154671
 21
30.459536
 31
0.000000
  0
LINE
  8
0
  6
SOLID
 62
     7
 10
70.154678
 20
30.459538
 30
0.000000
 11
79.154701
 21
6.309864
 31
0.000000
  0
LINE
  8
0
  6
SOLID
 62
     7
 10
70.654663
 20
-5.810013
 30
0.000000
 11
70.654663
 21
5.809998
 31
0.000000
  0
LINE
  8
0
  6
SOLID
 62
     7
 10
70.154671
 20
-30.459555
 30
0.000000
 11
79.154701
 21
-6.309868
 31
0.000000
  0
LINE
  8
0
  6
SOLID
 62
     7
 10
70.654602
 20
-30.959625
 30
0.000000
 11
70.154594
 21
-30.459614
 31
0.000000
  0
LINE
  8
0
  6
SOLID
 62
     7
 10
78.654663
 20
-5.810013
 30
0.000000
 11
78.654663
 21
5.809998
 31
0.000000
  0
LINE
  8
0
  6
SOLID
 62
     7
 10
78.654640
 20
-30.959581
 30
0.000000
 11
79.154671
 21
-30.459547
 31
0.000000
  0
LINE
  8
0
  6
SOLID
 62
     7
 10
70.654648
 20
-5.810029
 30
0.000000
 11
70.154701
 21
-6.309977
 31
0.000000
  0
LINE
  8
0
  6
SOLID
 62
     7
 10
78.654602
 20
-5.810089
 30
0.000000
 11
79.154602
 21
-6.310027
 31
0.000000
  0
LINE
  8
0
  6
SOLID
 62
     7
 10
78.654663
 20
-30.959549
 30
0.000000
 11
70.654663
 21
-30.959549
 31
0.000000
  0
LINE
  8
0
  6
SOLID
 62
     7
 10
78.654663
 20
30.959534
 30
0.000000
 11
70.654663
 21
30.959534
 31
0.000000
  0
LINE
  8
0
  6
SOLID
 62
     7
 10
78.654655
 20
30.959572
 30
0.000000
 11
79.154686
 21
30.459538
 31
0.000000
  0
LINE
  8
0
  6
SOLID
 62
     7
 10
70.654640
 20
5.810031
 30
0.000000
 11
70.154694
 21
6.309980
 31
0.000000
  0
LINE
  8
0
  6
SOLID
 62
     7
 10
78.654602
 20
5.810075
 30
0.000000
 11
79.154602
 21
6.310019
 31
0.000000
  0
LINE
  8
0
  6
SOLID
 62
     7
 10
70.654610
 20
30.959612
 30
0.000000
 11
70.154610
 21
30.459610
 31
0.000000
  0
LINE
  8
0
  6
SOLID
 62
     7
 10
78.654663
 20
5.809998
 30
0.000000
 11
70.654663
 21
5.809998
 31
0.000000
  0
LINE
  8
0
  6
SOLID
 62
     7
 10
78.654663
 20
31.500000
 30
0.000000
 11
78.654663
 21
30.959534
 31
0.000000
  0
LINE
  8
0
  6
SOLID
 62
     7
 10
70.654663
 20
31.500000
 30
0.000000
 11
70.654663
 21
30.959534
 31
0.000000
  0
LINE
  8
0
  6
SOLID
 62
     7
 10
86.654602
 20
20.000000
 30
0.000000
 11
86.654602
 21
-20.000000
 31
0.000000
  0
LINE
  8
0
  6
CENTER
 62
     7
 10
90.654663
 20
0.000000
 30
0.000000
 11
66.654663
 21
0.000000
 31
0.000000
  0
LINE
  8
0
  6
SOLID
 62
     7
 10
70.154671
 20
-6.310025
 30
0.000000
 11
79.154663
 21
-30.459547
 31
0.000000
  0
LINE
  8
0
  6
SOLID
 62
     7
 10
78.654663
 20
-5.810013
 30
0.000000
 11
70.654663
 21
-5.810013
 31
0.000000
  0
LINE
  8
0
  6
SOLID
 62
     7
 10
86.654755
 20
20.000061
 30
0.000000
 11
87.154755
 21
19.500040
 31
0.000000
  0
LINE
  8
0
  6
SOLID
 62
     7
 10
86.654617
 20
-20.000076
 30
0.000000
 11
87.154655
 21
-19.500046
 31
0.000000
  0
LINE
  8
0
  6
L_DASH
 62
     7
 10
70.154663
 20
29.750000
 30
0.000000
 11
75.654663
 21
29.750000
 31
0.000000
  0
LINE
  8
0
  6
L_DASH
 62
     7
 10
75.654663
 20
27.750000
 30
0.000000
 11
79.154663
 21
27.750000
 31
0.000000
  0
LINE
  8
0
  6
L_DASH
 62
     7
 10
75.654663
 20
22.250000
 30
0.000000
 11
79.154663
 21
22.250000
 31
0.000000
  0
LINE
  8
0
  6
SOLID
 62
     7
 10
68.154663
 20
25.000000
 30
0.000000
 11
81.154663
 21
25.000000
 31
0.000000
  0
LINE
  8
0
  6
L_DASH
 62
     7
 10
70.154663
 20
20.250000
 30
0.000000
 11
75.654663
 21
20.250000
 31
0.000000
  0
LINE
  8
0
  6
SOLID
 62
     7
 10
68.154663
 20
-25.000000
 30
0.000000
 11
81.154663
 21
-25.000000
 31
0.000000
  0
LINE
  8
0
  6
L_DASH
 62
     7
 10
75.654663
 20
20.250000
 30
0.000000
 11
75.654663
 21
29.750000
 31
0.000000
  0
CIRCLE
  8
0
  6
CENTER
 62
     7
 10
0.000000
 20
0.000000
 30
0.000000
 40
25.000000
  0
ARC
  8
0
  6
SOLID
 62
     7
 10
0.000000
 20
0.000000
 30
0.000000
 40
31.000000
 50
257.995880
 51
282.004100
  0
ARC
  8
0
  6
SOLID
 62
     7
 10
79.554657
 20
20.399994
 30
0.000000
 40
0.400000
 50
179.999990
 51
270.000000
  0
CIRCLE
  8
0
  6
SOLID
 62
     7
 10
0.000000
 20
0.000000
 30
0.000000
 40
16.500000
  0
ARC
  8
0
  6
SOLID
 62
     7
 10
79.554657
 20
-20.400009
 30
0.000000
 40
0.400000
 50
89.999996
 51
180.000010
  0
CIRCLE
  8
0
  6
SOLID
 62
     7
 10
0.000000
 20
0.000000
 30
0.000000
 40
7.500000
  0
ARC
  8
0
  6
SOLID
 62
     7
 10
0.000000
 20
0.000000
 30
0.000000
 40
31.000000
 50
77.995843
 51
102.004120
  0
ARC
  8
0
  6
SOLID
 62
     7
 10
0.000000
 20
0.000000
 30
0.000000
 40
31.000000
 50
167.995880
 51
192.004160
  0
ARC
  8
0
  6
SOLID
 62
     7
 10
0.000000
 20
0.000000
 30
0.000000
 40
31.500000
 50
349.371260
 51
10.628744
  0
ARC
  8
0
  6
SOLID
 62
     7
 10
0.000000
 20
0.000000
 30
0.000000
 40
31.000000
 50
347.995880
 51
12.004112
  0
ARC
  8
0
  6
SOLID
 62
     7
 10
0.000000
 20
0.000000
 30
0.000000
 40
31.500000
 50
79.371224
 51
100.628740
  0
ARC
  8
0
  6
SOLID
 62
     7
 10
0.000000
 20
0.000000
 30
0.000000
 40
31.500000
 50
259.371260
 51
280.628720
  0
CIRCLE
  8
0
  6
SOLID
 62
     7
 10
0.000000
 20
0.000000
 30
0.000000
 40
10.050003
  0
CIRCLE
  8
0
  6
SOLID
 62
     7
 10
0.000000
 20
0.000000
 30
0.000000
 40
13.750000
  0
CIRCLE
  8
0
  6
SOLID
 62
     7
 10
0.000000
 20
0.000000
 30
0.000000
 40
16.000000
  0
CIRCLE
  8
0
  6
SOLID
 62
     7
 10
0.000000
 20
25.000000
 30
0.000000
 40
2.750000
  0
CIRCLE
  8
0
  6
SOLID
 62
     7
 10
0.000000
 20
25.000000
 30
0.000000
 40
4.750000
  0
ARC
  8
0
  6
SOLID
 62
     7
 10
0.000000
 20
0.000000
 30
0.000000
 40
31.500000
 50
169.371260
 51
190.628780
  0
TEXT
  8
0
  6
SOLID
 62
     7
 10
29.945522
 20
35.003777
 30
0.000000
 40
3.600000
  1
FF 15
 50
0.000000
 41
0.711399
  0
ENDSEC
  0
EOF
