  0
SECTION
  2
HEADER
  9
$ACADVER
  1
AC1015
  9
$ACADMAINTVER
 70
    20
  9
$DWGCODEPAGE
  3
ANSI_950
  9
$INSBASE
 10
0.0
 20
0.0
 30
0.0
  9
$EXTMIN
 10
-47.500092
 20
-47.499992
 30
0.0
  9
$EXTMAX
 10
106.44905
 20
59.4426571644224
 30
0.0
  9
$LIMMIN
 10
0.0
 20
0.0
  9
$LIMMAX
 10
12.0
 20
9.0
  9
$ORTHOMODE
 70
     0
  9
$REGENMODE
 70
     1
  9
$FILLMODE
 70
     1
  9
$QTEXTMODE
 70
     0
  9
$MIRRTEXT
 70
     0
  9
$LTSCALE
 40
1.0
  9
$ATTMODE
 70
     1
  9
$TEXTSIZE
 40
8.35721036560767
  9
$TRACEWID
 40
0.05
  9
$TEXTSTYLE
  7
STANDARD
  9
$CLAYER
  8
0
  9
$CELTYPE
  6
Continuous
  9
$CECOLOR
 62
   256
  9
$CELTSCALE
 40
1.0
  9
$DISPSILH
 70
     0
  9
$DIMSCALE
 40
1.0
  9
$DIMASZ
 40
0.18
  9
$DIMEXO
 40
0.0625
  9
$DIMDLI
 40
0.38
  9
$DIMRND
 40
0.0
  9
$DIMDLE
 40
0.0
  9
$DIMEXE
 40
0.18
  9
$DIMTP
 40
0.0
  9
$DIMTM
 40
0.0
  9
$DIMTXT
 40
0.18
  9
$DIMCEN
 40
0.09
  9
$DIMTSZ
 40
0.0
  9
$DIMTOL
 70
     0
  9
$DIMLIM
 70
     0
  9
$DIMTIH
 70
     1
  9
$DIMTOH
 70
     1
  9
$DIMSE1
 70
     0
  9
$DIMSE2
 70
     0
  9
$DIMTAD
 70
     0
  9
$DIMZIN
 70
     0
  9
$DIMBLK
  1

  9
$DIMASO
 70
     1
  9
$DIMSHO
 70
     1
  9
$DIMPOST
  1

  9
$DIMAPOST
  1

  9
$DIMALT
 70
     0
  9
$DIMALTD
 70
     2
  9
$DIMALTF
 40
25.4
  9
$DIMLFAC
 40
1.0
  9
$DIMTOFL
 70
     0
  9
$DIMTVP
 40
0.0
  9
$DIMTIX
 70
     0
  9
$DIMSOXD
 70
     0
  9
$DIMSAH
 70
     0
  9
$DIMBLK1
  1

  9
$DIMBLK2
  1

  9
$DIMSTYLE
  2
Standard
  9
$DIMCLRD
 70
     0
  9
$DIMCLRE
 70
     0
  9
$DIMCLRT
 70
     0
  9
$DIMTFAC
 40
1.0
  9
$DIMGAP
 40
0.09
  9
$DIMJUST
 70
     0
  9
$DIMSD1
 70
     0
  9
$DIMSD2
 70
     0
  9
$DIMTOLJ
 70
     1
  9
$DIMTZIN
 70
     0
  9
$DIMALTZ
 70
     0
  9
$DIMALTTZ
 70
     0
  9
$DIMUPT
 70
     0
  9
$DIMDEC
 70
     4
  9
$DIMTDEC
 70
     4
  9
$DIMALTU
 70
     2
  9
$DIMALTTD
 70
     2
  9
$DIMTXSTY
  7
STANDARD
  9
$DIMAUNIT
 70
     0
  9
$DIMADEC
 70
     0
  9
$DIMALTRND
 40
0.0
  9
$DIMAZIN
 70
     0
  9
$DIMDSEP
 70
    46
  9
$DIMATFIT
 70
     3
  9
$DIMFRAC
 70
     0
  9
$DIMLDRBLK
  1

  9
$DIMLUNIT
 70
     2
  9
$DIMLWD
 70
    -2
  9
$DIMLWE
 70
    -2
  9
$DIMTMOVE
 70
     0
  9
$LUNITS
 70
     2
  9
$LUPREC
 70
     4
  9
$SKETCHINC
 40
0.1
  9
$FILLETRAD
 40
0.0
  9
$AUNITS
 70
     0
  9
$AUPREC
 70
     0
  9
$MENU
  1
.
  9
$ELEVATION
 40
0.0
  9
$PELEVATION
 40
0.0
  9
$THICKNESS
 40
0.0
  9
$LIMCHECK
 70
     0
  9
$CHAMFERA
 40
0.0
  9
$CHAMFERB
 40
0.0
  9
$CHAMFERC
 40
0.0
  9
$CHAMFERD
 40
0.0
  9
$SKPOLY
 70
     0
  9
$TDCREATE
 40
2453617.622356031
  9
$TDUCREATE
 40
2453617.289022697
  9
$TDUPDATE
 40
2453617.623569861
  9
$TDUUPDATE
 40
2453617.290236528
  9
$TDINDWG
 40
0.0012140162
  9
$TDUSRTIMER
 40
0.0012140162
  9
$USRTIMER
 70
     1
  9
$ANGBASE
 50
0.0
  9
$ANGDIR
 70
     0
  9
$PDMODE
 70
     0
  9
$PDSIZE
 40
0.0
  9
$PLINEWID
 40
0.0
  9
$SPLFRAME
 70
     0
  9
$SPLINETYPE
 70
     6
  9
$SPLINESEGS
 70
     8
  9
$HANDSEED
  5
7D
  9
$SURFTAB1
 70
     6
  9
$SURFTAB2
 70
     6
  9
$SURFTYPE
 70
     6
  9
$SURFU
 70
     6
  9
$SURFV
 70
     6
  9
$UCSBASE
  2

  9
$UCSNAME
  2

  9
$UCSORG
 10
0.0
 20
0.0
 30
0.0
  9
$UCSXDIR
 10
1.0
 20
0.0
 30
0.0
  9
$UCSYDIR
 10
0.0
 20
1.0
 30
0.0
  9
$UCSORTHOREF
  2

  9
$UCSORTHOVIEW
 70
     0
  9
$UCSORGTOP
 10
0.0
 20
0.0
 30
0.0
  9
$UCSORGBOTTOM
 10
0.0
 20
0.0
 30
0.0
  9
$UCSORGLEFT
 10
0.0
 20
0.0
 30
0.0
  9
$UCSORGRIGHT
 10
0.0
 20
0.0
 30
0.0
  9
$UCSORGFRONT
 10
0.0
 20
0.0
 30
0.0
  9
$UCSORGBACK
 10
0.0
 20
0.0
 30
0.0
  9
$PUCSBASE
  2

  9
$PUCSNAME
  2

  9
$PUCSORG
 10
0.0
 20
0.0
 30
0.0
  9
$PUCSXDIR
 10
1.0
 20
0.0
 30
0.0
  9
$PUCSYDIR
 10
0.0
 20
1.0
 30
0.0
  9
$PUCSORTHOREF
  2

  9
$PUCSORTHOVIEW
 70
     0
  9
$PUCSORGTOP
 10
0.0
 20
0.0
 30
0.0
  9
$PUCSORGBOTTOM
 10
0.0
 20
0.0
 30
0.0
  9
$PUCSORGLEFT
 10
0.0
 20
0.0
 30
0.0
  9
$PUCSORGRIGHT
 10
0.0
 20
0.0
 30
0.0
  9
$PUCSORGFRONT
 10
0.0
 20
0.0
 30
0.0
  9
$PUCSORGBACK
 10
0.0
 20
0.0
 30
0.0
  9
$USERI1
 70
     0
  9
$USERI2
 70
     0
  9
$USERI3
 70
     0
  9
$USERI4
 70
     0
  9
$USERI5
 70
     0
  9
$USERR1
 40
0.0
  9
$USERR2
 40
0.0
  9
$USERR3
 40
0.0
  9
$USERR4
 40
0.0
  9
$USERR5
 40
0.0
  9
$WORLDVIEW
 70
     1
  9
$SHADEDGE
 70
     3
  9
$SHADEDIF
 70
    70
  9
$TILEMODE
 70
     1
  9
$MAXACTVP
 70
    64
  9
$PINSBASE
 10
0.0
 20
0.0
 30
0.0
  9
$PLIMCHECK
 70
     0
  9
$PEXTMIN
 10
1.000000000000000E+20
 20
1.000000000000000E+20
 30
1.000000000000000E+20
  9
$PEXTMAX
 10
-1.000000000000000E+20
 20
-1.000000000000000E+20
 30
-1.000000000000000E+20
  9
$PLIMMIN
 10
0.0
 20
0.0
  9
$PLIMMAX
 10
12.0
 20
9.0
  9
$UNITMODE
 70
     0
  9
$VISRETAIN
 70
     1
  9
$PLINEGEN
 70
     0
  9
$PSLTSCALE
 70
     1
  9
$TREEDEPTH
 70
  3020
  9
$CMLSTYLE
  2
Standard
  9
$CMLJUST
 70
     0
  9
$CMLSCALE
 40
1.0
  9
$PROXYGRAPHICS
 70
     1
  9
$MEASUREMENT
 70
     0
  9
$CELWEIGHT
370
    -1
  9
$ENDCAPS
280
     0
  9
$JOINSTYLE
280
     0
  9
$LWDISPLAY
290
     0
  9
$INSUNITS
 70
     0
  9
$HYPERLINKBASE
  1

  9
$STYLESHEET
  1

  9
$XEDIT
290
     1
  9
$CEPSNTYPE
380
     0
  9
$PSTYLEMODE
290
     1
  9
$FINGERPRINTGUID
  2
{6C2546CD-AD80-4516-83CB-6FC27E67A8EC}
  9
$VERSIONGUID
  2
{CEC26519-1181-44EC-93F8-F5B33A9E97F3}
  9
$EXTNAMES
290
     1
  9
$PSVPSCALE
 40
0.0
  9
$OLESTARTUP
290
     0
  0
ENDSEC
  0
SECTION
  2
CLASSES
  0
CLASS
  1
ACDBDICTIONARYWDFLT
  2
AcDbDictionaryWithDefault
  3
ObjectDBX Classes
 90
        0
280
     0
281
     0
  0
CLASS
  1
DICTIONARYVAR
  2
AcDbDictionaryVar
  3
ObjectDBX Classes
 90
        0
280
     0
281
     0
  0
CLASS
  1
ACDBPLACEHOLDER
  2
AcDbPlaceHolder
  3
ObjectDBX Classes
 90
        0
280
     0
281
     0
  0
CLASS
  1
LAYOUT
  2
AcDbLayout
  3
ObjectDBX Classes
 90
        0
280
     0
281
     0
  0
ENDSEC
  0
SECTION
  2
TABLES
  0
TABLE
  2
VPORT
  5
8
330
0
100
AcDbSymbolTable
 70
     2
  0
VPORT
  5
75
330
8
100
AcDbSymbolTableRecord
100
AcDbViewportTableRecord
  2
*Active
 70
     0
 10
0.0
 20
0.0
 11
1.0
 21
1.0
 12
59.58101437560284
 22
4.966026062664425
 13
0.0
 23
0.0
 14
1.0
 24
1.0
 15
0.0
 25
0.0
 16
0.0
 26
0.0
 36
1.0
 17
0.0
 27
0.0
 37
0.0
 40
131.0534405210601
 41
1.964285714285714
 42
50.0
 43
0.0
 44
0.0
 50
0.0
 51
0.0
 71
     0
 72
   100
 73
     1
 74
     1
 75
     0
 76
     0
 77
     0
 78
     0
281
     0
 65
     1
110
0.0
120
0.0
130
0.0
111
1.0
121
0.0
131
0.0
112
0.0
122
1.0
132
0.0
 79
     0
146
0.0
  0
ENDTAB
  0
TABLE
  2
LTYPE
  5
5
330
0
100
AcDbSymbolTable
 70
     9
  0
LTYPE
  5
13
330
5
100
AcDbSymbolTableRecord
100
AcDbLinetypeTableRecord
  2
ByBlock
 70
     0
  3

 72
    65
 73
     0
 40
0.0
  0
LTYPE
  5
14
330
5
100
AcDbSymbolTableRecord
100
AcDbLinetypeTableRecord
  2
ByLayer
 70
     0
  3

 72
    65
 73
     0
 40
0.0
  0
LTYPE
  5
15
330
5
100
AcDbSymbolTableRecord
100
AcDbLinetypeTableRecord
  2
Continuous
 70
     0
  3
Solid line
 72
    65
 73
     0
 40
0.0
  0
LTYPE
  5
24
330
5
100
AcDbSymbolTableRecord
100
AcDbLinetypeTableRecord
  2
SOLID
 70
     0
  3

 72
    65
 73
     0
 40
0.0
  0
LTYPE
  5
25
330
5
100
AcDbSymbolTableRecord
100
AcDbLinetypeTableRecord
  2
DASH
 70
     0
  3

 72
    65
 73
     2
 40
8.0
 49
4.0
 74
     0
 49
-4.0
 74
     0
  0
LTYPE
  5
26
330
5
100
AcDbSymbolTableRecord
100
AcDbLinetypeTableRecord
  2
CENTER
 70
     0
  3

 72
    65
 73
     4
 40
8.0
 49
4.5
 74
     0
 49
-1.5
 74
     0
 49
0.5
 74
     0
 49
-1.5
 74
     0
  0
LTYPE
  5
27
330
5
100
AcDbSymbolTableRecord
100
AcDbLinetypeTableRecord
  2
L_DASH
 70
     0
  3

 72
    65
 73
     2
 40
8.0
 49
6.0
 74
     0
 49
-2.0
 74
     0
  0
LTYPE
  5
28
330
5
100
AcDbSymbolTableRecord
100
AcDbLinetypeTableRecord
  2
FONT_5
 70
     0
  3

 72
    65
 73
     8
 40
8.0
 49
0.5
 74
     0
 49
-1.5
 74
     0
 49
0.5
 74
     0
 49
-1.5
 74
     0
 49
0.5
 74
     0
 49
-1.5
 74
     0
 49
0.5
 74
     0
 49
-1.5
 74
     0
  0
LTYPE
  5
29
330
5
100
AcDbSymbolTableRecord
100
AcDbLinetypeTableRecord
  2
FONT_6
 70
     0
  3

 72
    65
 73
    11
 40
8.0
 49
0.5
 74
     0
 49
-1.0
 74
     0
 49
0.5
 74
     0
 49
-1.0
 74
     0
 49
0.5
 74
     0
 49
-1.0
 74
     0
 49
0.5
 74
     0
 49
-1.0
 74
     0
 49
0.5
 74
     0
 49
-1.0
 74
     0
 49
0.5
 74
     0
  0
LTYPE
  5
2A
330
5
100
AcDbSymbolTableRecord
100
AcDbLinetypeTableRecord
  2
FONT_7
 70
     0
  3

 72
    65
 73
     4
 40
8.0
 49
1.0
 74
     0
 49
-5.0
 74
     0
 49
1.0
 74
     0
 49
-1.0
 74
     0
  0
LTYPE
  5
2B
330
5
100
AcDbSymbolTableRecord
100
AcDbLinetypeTableRecord
  2
FONT_8
 70
     0
  3

 72
    65
 73
     4
 40
8.0
 49
1.0
 74
     0
 49
-5.0
 74
     0
 49
1.0
 74
     0
 49
-1.0
 74
     0
  0
ENDTAB
  0
TABLE
  2
LAYER
  5
2
330
0
100
AcDbSymbolTable
 70
     3
  0
LAYER
  5
10
330
2
100
AcDbSymbolTableRecord
100
AcDbLayerTableRecord
  2
0
 70
     0
 62
     7
  6
SOLID
370
    -3
390
F
  0
LAYER
  5
2C
330
2
100
AcDbSymbolTableRecord
100
AcDbLayerTableRecord
  2
LEVEL0
 70
     0
 62
     7
  6
SOLID
370
    -3
390
F
  0
LAYER
  5
2D
330
2
100
AcDbSymbolTableRecord
100
AcDbLayerTableRecord
  2
LEVEL1
 70
     0
 62
     7
  6
SOLID
370
    -3
390
F
  0
ENDTAB
  0
TABLE
  2
STYLE
  5
3
330
0
100
AcDbSymbolTable
 70
     1
  0
STYLE
  5
11
330
3
100
AcDbSymbolTableRecord
100
AcDbTextStyleTableRecord
  2
STANDARD
 70
     0
 40
0.0
 41
1.0
 50
0.0
 71
     0
 42
8.35721036560767
  3
txt.shx
  4

  0
ENDTAB
  0
TABLE
  2
VIEW
  5
6
330
0
100
AcDbSymbolTable
 70
     0
  0
ENDTAB
  0
TABLE
  2
UCS
  5
7
330
0
100
AcDbSymbolTable
 70
     0
  0
ENDTAB
  0
TABLE
  2
APPID
  5
9
330
0
100
AcDbSymbolTable
 70
     1
  0
APPID
  5
12
330
9
100
AcDbSymbolTableRecord
100
AcDbRegAppTableRecord
  2
ACAD
 70
     0
  0
ENDTAB
  0
TABLE
  2
DIMSTYLE
  5
A
330
0
100
AcDbSymbolTable
 70
     1
100
AcDbDimStyleTable
 71
     0
  0
DIMSTYLE
105
6F
330
A
100
AcDbSymbolTableRecord
100
AcDbDimStyleTableRecord
  2
Standard
 70
     0
340
11
  0
ENDTAB
  0
TABLE
  2
BLOCK_RECORD
  5
1
330
0
100
AcDbSymbolTable
 70
     0
  0
BLOCK_RECORD
  5
20
330
1
100
AcDbSymbolTableRecord
100
AcDbBlockTableRecord
  2
*Model_Space
340
23
  0
BLOCK_RECORD
  5
1C
330
1
100
AcDbSymbolTableRecord
100
AcDbBlockTableRecord
  2
*Paper_Space
340
1F
  0
ENDTAB
  0
ENDSEC
  0
SECTION
  2
BLOCKS
  0
BLOCK
  5
21
330
20
100
AcDbEntity
  8
0
100
AcDbBlockBegin
  2
*Model_Space
 70
     0
 10
0.0
 20
0.0
 30
0.0
  3
*Model_Space
  1

  0
ENDBLK
  5
22
330
20
100
AcDbEntity
  8
0
100
AcDbBlockEnd
  0
BLOCK
  5
1D
330
1C
100
AcDbEntity
 67
     1
  8
0
100
AcDbBlockBegin
  2
*Paper_Space
 70
     0
 10
0.0
 20
0.0
 30
0.0
  3
*Paper_Space
  1

  0
ENDBLK
  5
1E
330
1C
100
AcDbEntity
 67
     1
  8
0
100
AcDbBlockEnd
  0
ENDSEC
  0
SECTION
  2
ENTITIES
  0
LINE
  5
30
330
20
100
AcDbEntity
  8
0
  6
SOLID
 62
     7
100
AcDbLine
 10
76.180008
 20
38.072861
 30
0.0
 11
76.180008
 21
38.5
 31
0.0
  0
LINE
  5
31
330
20
100
AcDbEntity
  8
0
  6
SOLID
 62
     7
100
AcDbLine
 10
76.180145
 20
38.072868
 30
0.0
 11
75.68001600000001
 21
37.572739
 31
0.0
  0
LINE
  5
32
330
20
100
AcDbEntity
  8
0
  6
SOLID
 62
     7
100
AcDbLine
 10
86.68001600000001
 20
5.453437999999999
 30
0.0
 11
86.18010699999999
 21
4.953523
 31
0.0
  0
LINE
  5
33
330
20
100
AcDbEntity
  8
0
  6
SOLID
 62
     7
100
AcDbLine
 10
76.18007699999999
 20
4.953464
 30
0.0
 11
75.67995500000001
 21
5.453583
 31
0.0
  0
LINE
  5
34
330
20
100
AcDbEntity
  8
0
  6
SOLID
 62
     7
100
AcDbLine
 10
75.67994699999999
 20
-5.453548
 30
0.0
 11
86.68000799999999
 21
-37.572876
 31
0.0
  0
LINE
  5
35
330
20
100
AcDbEntity
  8
0
  6
SOLID
 62
     7
100
AcDbLine
 10
75.68001600000001
 20
37.572739
 30
0.0
 11
86.68001600000001
 21
5.453437999999999
 31
0.0
  0
LINE
  5
36
330
20
100
AcDbEntity
  8
0
  6
SOLID
 62
     7
100
AcDbLine
 10
86.68000799999999
 20
-37.572876
 30
0.0
 11
86.18005399999999
 21
-38.07283
 31
0.0
  0
LINE
  5
37
330
20
100
AcDbEntity
  8
0
  6
SOLID
 62
     7
100
AcDbLine
 10
76.18006899999999
 20
-4.953427999999999
 30
0.0
 11
75.67994699999999
 21
-5.453548
 31
0.0
  0
LINE
  5
38
330
20
100
AcDbEntity
  8
0
  6
SOLID
 62
     7
100
AcDbLine
 10
86.68000799999999
 20
-5.453405
 30
0.0
 11
86.18009200000001
 21
-4.95349
 31
0.0
  0
LINE
  5
39
330
20
100
AcDbEntity
  8
0
  6
SOLID
 62
     7
100
AcDbLine
 10
76.18013799999999
 20
-38.072887
 30
0.0
 11
75.680008
 21
-37.572758
 31
0.0
  0
LINE
  5
3A
330
20
100
AcDbEntity
  8
0
  6
SOLID
 62
     7
100
AcDbLine
 10
76.180008
 20
-38.072876
 30
0.0
 11
76.180008
 21
-38.50001500000001
 31
0.0
  0
LINE
  5
3B
330
20
100
AcDbEntity
  8
0
  6
SOLID
 62
     7
100
AcDbLine
 10
86.180008
 20
-38.072876
 30
0.0
 11
86.180008
 21
-38.50001500000001
 31
0.0
  0
LINE
  5
3C
330
20
100
AcDbEntity
  8
0
  6
SOLID
 62
     7
100
AcDbLine
 10
75.67995500000001
 20
5.453583
 30
0.0
 11
86.68000799999999
 21
37.572865
 31
0.0
  0
LINE
  5
3D
330
20
100
AcDbEntity
  8
0
  6
SOLID
 62
     7
100
AcDbLine
 10
86.180008
 20
-38.072876
 30
0.0
 11
76.180008
 21
-38.072876
 31
0.0
  0
LINE
  5
3E
330
20
100
AcDbEntity
  8
0
  6
SOLID
 62
     7
100
AcDbLine
 10
95.18008399999999
 20
25.0
 30
0.0
 11
86.68000799999999
 21
25.0
 31
0.0
  0
LINE
  5
3F
330
20
100
AcDbEntity
  8
0
  6
SOLID
 62
     7
100
AcDbLine
 10
95.18008399999999
 20
25.0
 30
0.0
 11
95.18008399999999
 21
-25.000015
 31
0.0
  0
LINE
  5
40
330
20
100
AcDbEntity
  8
0
  6
SOLID
 62
     7
100
AcDbLine
 10
76.180008
 20
4.953511999999999
 30
0.0
 11
76.180008
 21
-4.953475
 31
0.0
  0
LINE
  5
41
330
20
100
AcDbEntity
  8
0
  6
SOLID
 62
     7
100
AcDbLine
 10
86.180008
 20
4.953511999999999
 30
0.0
 11
86.180008
 21
-4.953475
 31
0.0
  0
LINE
  5
42
330
20
100
AcDbEntity
  8
0
  6
SOLID
 62
     7
100
AcDbLine
 10
86.18010699999999
 20
38.500076
 30
0.0
 11
86.68000799999999
 21
38.000205
 31
0.0
  0
LINE
  5
43
330
20
100
AcDbEntity
  8
0
  6
SOLID
 62
     7
100
AcDbLine
 10
76.17996999999999
 20
38.49992800000001
 30
0.0
 11
75.680008
 21
37.99997000000001
 31
0.0
  0
LINE
  5
44
330
20
100
AcDbEntity
  8
0
  6
SOLID
 62
     7
100
AcDbLine
 10
75.680008
 20
-38.000122
 30
0.0
 11
76.18013000000001
 21
-38.500072
 31
0.0
  0
LINE
  5
45
330
20
100
AcDbEntity
  8
0
  6
SOLID
 62
     7
100
AcDbLine
 10
86.68000799999999
 20
-38.000015
 30
0.0
 11
86.18004599999999
 21
-38.499992
 31
0.0
  0
LINE
  5
46
330
20
100
AcDbEntity
  8
0
  6
SOLID
 62
     7
100
AcDbLine
 10
86.180008
 20
38.499992
 30
0.0
 11
76.180008
 21
38.499992
 31
0.0
  0
LINE
  5
47
330
20
100
AcDbEntity
  8
0
  6
SOLID
 62
     7
100
AcDbLine
 10
86.180008
 20
38.072861
 30
0.0
 11
86.180008
 21
38.5
 31
0.0
  0
LINE
  5
48
330
20
100
AcDbEntity
  8
0
  6
SOLID
 62
     7
100
AcDbLine
 10
86.180008
 20
-38.50001500000001
 30
0.0
 11
76.18025199999999
 21
-38.50001500000001
 31
0.0
  0
LINE
  5
49
330
20
100
AcDbEntity
  8
0
  6
SOLID
 62
     7
100
AcDbLine
 10
86.68000799999999
 20
38.000205
 30
0.0
 11
86.68000799999999
 21
-38.000015
 31
0.0
  0
LINE
  5
4A
330
20
100
AcDbEntity
  8
0
  6
SOLID
 62
     7
100
AcDbLine
 10
95.17996999999999
 20
24.999949
 30
0.0
 11
95.680008
 21
24.499786
 31
0.0
  0
LINE
  5
4B
330
20
100
AcDbEntity
  8
0
  6
SOLID
 62
     7
100
AcDbLine
 10
95.680008
 20
-24.500021
 30
0.0
 11
95.18009199999999
 21
-24.999949
 31
0.0
  0
LINE
  5
4C
330
20
100
AcDbEntity
  8
0
  6
SOLID
 62
     7
100
AcDbLine
 10
86.68000799999999
 20
37.572865
 30
0.0
 11
86.180061
 21
38.072811
 31
0.0
  0
LINE
  5
4D
330
20
100
AcDbEntity
  8
0
  6
SOLID
 62
     7
100
AcDbLine
 10
76.180008
 20
4.953511999999999
 30
0.0
 11
86.180008
 21
4.953511999999999
 31
0.0
  0
LINE
  5
4E
330
20
100
AcDbEntity
  8
0
  6
SOLID
 62
     7
100
AcDbLine
 10
76.180008
 20
-4.953475
 30
0.0
 11
86.180008
 21
-4.953475
 31
0.0
  0
LINE
  5
4F
330
20
100
AcDbEntity
  8
0
  6
SOLID
 62
     7
100
AcDbLine
 10
95.680008
 20
24.499786
 30
0.0
 11
95.680008
 21
-24.500021
 31
0.0
  0
LINE
  5
50
330
20
100
AcDbEntity
  8
0
  6
SOLID
 62
     7
100
AcDbLine
 10
75.680008
 20
37.99997000000001
 30
0.0
 11
75.680008
 21
-38.000122
 31
0.0
  0
CIRCLE
  5
51
330
20
100
AcDbEntity
  8
0
  6
SOLID
 62
     7
100
AcDbCircle
 10
0.0
 20
-0.000008
 30
0.0
 40
20.0
  0
LINE
  5
52
330
20
100
AcDbEntity
  8
0
  6
SOLID
 62
     7
100
AcDbLine
 10
95.18008399999999
 20
-25.000015
 30
0.0
 11
86.68000799999999
 21
-25.000015
 31
0.0
  0
LINE
  5
53
330
20
100
AcDbEntity
  8
0
  6
SOLID
 62
     7
100
AcDbLine
 10
106.44905
 20
-0.000008
 30
0.0
 11
69.176834
 21
-0.000008
 31
0.0
  0
LINE
  5
54
330
20
100
AcDbEntity
  8
0
  6
SOLID
 62
     7
100
AcDbLine
 10
-38.180002
 20
-4.953533999999999
 30
0.0
 11
-4.953523999999999
 21
-38.180011
 31
0.0
  0
LINE
  5
55
330
20
100
AcDbEntity
  8
0
  6
SOLID
 62
     7
100
AcDbLine
 10
4.953519
 20
38.179995
 30
0.0
 11
38.180003
 21
4.953511999999999
 31
0.0
  0
LINE
  5
56
330
20
100
AcDbEntity
  8
0
  6
SOLID
 62
     7
100
AcDbLine
 10
-38.179996
 20
4.953565
 30
0.0
 11
-4.953572
 21
38.179988
 31
0.0
  0
LINE
  5
57
330
20
100
AcDbEntity
  8
0
  6
SOLID
 62
     7
100
AcDbLine
 10
4.953469
 20
-38.180018
 30
0.0
 11
38.18001
 21
-4.953475
 31
0.0
  0
LINE
  5
58
330
20
100
AcDbEntity
  8
0
  6
SOLID
 62
     7
100
AcDbLine
 10
-47.500092
 20
-0.000008
 30
0.0
 11
47.5
 21
-0.000008
 31
0.0
  0
LINE
  5
59
330
20
100
AcDbEntity
  8
0
  6
SOLID
 62
     7
100
AcDbLine
 10
0.0
 20
47.499992
 30
0.0
 11
0.0
 21
-47.499992
 31
0.0
  0
LINE
  5
5A
330
20
100
AcDbEntity
  8
0
  6
SOLID
 62
     7
100
AcDbLine
 10
86.68000799999999
 20
-5.453405
 30
0.0
 11
75.680008
 21
-37.572758
 31
0.0
  0
LINE
  5
5B
330
20
100
AcDbEntity
  8
0
  6
SOLID
 62
     7
100
AcDbLine
 10
86.180008
 20
38.072861
 30
0.0
 11
76.180008
 21
38.072861
 31
0.0
  0
LINE
  5
5C
330
20
100
AcDbEntity
  8
0
  6
SOLID
 62
     7
100
AcDbLine
 10
75.680008
 20
36.499992
 30
0.0
 11
82.180008
 21
36.499992
 31
0.0
  0
LINE
  5
5D
330
20
100
AcDbEntity
  8
0
  6
SOLID
 62
     7
100
AcDbLine
 10
82.180008
 20
34.299992
 30
0.0
 11
86.68000799999999
 21
34.299992
 31
0.0
  0
LINE
  5
5E
330
20
100
AcDbEntity
  8
0
  6
SOLID
 62
     7
100
AcDbLine
 10
73.680008
 20
30.999992
 30
0.0
 11
88.680008
 21
30.999992
 31
0.0
  0
LINE
  5
5F
330
20
100
AcDbEntity
  8
0
  6
SOLID
 62
     7
100
AcDbLine
 10
82.180008
 20
27.699993
 30
0.0
 11
86.68000799999999
 21
27.699993
 31
0.0
  0
LINE
  5
60
330
20
100
AcDbEntity
  8
0
  6
SOLID
 62
     7
100
AcDbLine
 10
75.680008
 20
25.499992
 30
0.0
 11
82.180008
 21
25.499992
 31
0.0
  0
CIRCLE
  5
61
330
20
100
AcDbEntity
  8
0
  6
SOLID
 62
     7
100
AcDbCircle
 10
0.0
 20
-0.000008
 30
0.0
 40
8.5
  0
LINE
  5
62
330
20
100
AcDbEntity
  8
0
  6
SOLID
 62
     7
100
AcDbLine
 10
82.180008
 20
36.499992
 30
0.0
 11
82.180008
 21
25.499992
 31
0.0
  0
CIRCLE
  5
63
330
20
100
AcDbEntity
  8
0
  6
SOLID
 62
     7
100
AcDbCircle
 10
0.0
 20
-0.000008
 30
0.0
 40
21.0
  0
ARC
  5
64
330
20
100
AcDbEntity
  8
0
  6
SOLID
 62
     7
100
AcDbCircle
 10
0.0
 20
-0.000008
 30
0.0
 40
38.5
100
AcDbArc
 50
172.607589
 51
187.39234
  0
ARC
  5
65
330
20
100
AcDbEntity
  8
0
  6
SOLID
 62
     7
100
AcDbCircle
 10
0.0
 20
-0.000008
 30
0.0
 40
38.5
100
AcDbArc
 50
82.60766999999999
 51
97.392409
  0
ARC
  5
66
330
20
100
AcDbEntity
  8
0
  6
SOLID
 62
     7
100
AcDbCircle
 10
0.0
 20
-0.000008
 30
0.0
 40
38.0
100
AcDbArc
 50
81.617844
 51
98.38223800000001
  0
ARC
  5
67
330
20
100
AcDbEntity
  8
0
  6
SOLID
 62
     7
100
AcDbCircle
 10
0.0
 20
-0.000008
 30
0.0
 40
38.0
100
AcDbArc
 50
261.617837
 51
278.382077
  0
CIRCLE
  5
68
330
20
100
AcDbEntity
  8
0
  6
SOLID
 62
     7
100
AcDbCircle
 10
0.0
 20
30.999992
 30
0.0
 40
3.299999999999999
  0
CIRCLE
  5
69
330
20
100
AcDbEntity
  8
0
  6
SOLID
 62
     7
100
AcDbCircle
 10
0.0
 20
30.999992
 30
0.0
 40
5.5
  0
ARC
  5
6A
330
20
100
AcDbEntity
  8
0
  6
SOLID
 62
     7
100
AcDbCircle
 10
0.0
 20
-0.000008
 30
0.0
 40
38.0
100
AcDbArc
 50
171.617761
 51
188.382166
  0
ARC
  5
6B
330
20
100
AcDbEntity
  8
0
  6
SOLID
 62
     7
100
AcDbCircle
 10
0.0
 20
-0.000008
 30
0.0
 40
38.0
100
AcDbArc
 50
351.617927
 51
8.382157000000001
  0
ARC
  5
6C
330
20
100
AcDbEntity
  8
0
  6
SOLID
 62
     7
100
AcDbCircle
 10
0.0
 20
-0.000008
 30
0.0
 40
38.5
100
AcDbArc
 50
262.607663
 51
277.392254
  0
ARC
  5
6D
330
20
100
AcDbEntity
  8
0
  6
SOLID
 62
     7
100
AcDbCircle
 10
0.0
 20
-0.000008
 30
0.0
 40
38.5
100
AcDbArc
 50
352.607749
 51
7.392330999999999
  0
CIRCLE
  5
6E
330
20
100
AcDbEntity
  8
0
  6
SOLID
 62
     7
100
AcDbCircle
 10
0.0
 20
-0.000008
 30
0.0
 40
31.0
  0
TEXT
  5
71
330
20
100
AcDbEntity
  8
0
  6
Continuous
100
AcDbText
 10
29.9814416228806
 20
51.08544679881473
 30
0.0
 40
8.35721036560767
  1
FF17
100
AcDbText
  0
ENDSEC
  0
SECTION
  2
OBJECTS
  0
DICTIONARY
  5
C
330
0
100
AcDbDictionary
281
     1
  3
ACAD_COLOR
350
1B
  3
ACAD_GROUP
350
D
  3
ACAD_LAYOUT
350
19
  3
ACAD_MATERIAL
350
1A
  3
ACAD_MLINESTYLE
350
16
  3
ACAD_PLOTSETTINGS
350
18
  3
ACAD_PLOTSTYLENAME
350
E
  3
ACDBHEADERROUNDTRIPXREC
350
76
  3
AcDbVariableDictionary
350
72
  0
DICTIONARY
  5
1B
102
{ACAD_REACTORS
330
C
102
}
330
C
100
AcDbDictionary
281
     1
  0
DICTIONARY
  5
D
102
{ACAD_REACTORS
330
C
102
}
330
C
100
AcDbDictionary
281
     1
  0
DICTIONARY
  5
19
102
{ACAD_REACTORS
330
C
102
}
330
C
100
AcDbDictionary
281
     1
  3
Model
350
23
  3
配置1
350
1F
  0
DICTIONARY
  5
1A
102
{ACAD_REACTORS
330
C
102
}
330
C
100
AcDbDictionary
281
     1
  0
DICTIONARY
  5
16
102
{ACAD_REACTORS
330
C
102
}
330
C
100
AcDbDictionary
281
     1
  3
Standard
350
17
  0
DICTIONARY
  5
18
102
{ACAD_REACTORS
330
C
102
}
330
C
100
AcDbDictionary
281
     1
  0
ACDBDICTIONARYWDFLT
  5
E
102
{ACAD_REACTORS
330
C
102
}
330
C
100
AcDbDictionary
281
     1
  3
Normal
350
F
100
AcDbDictionaryWithDefault
340
F
  0
DICTIONARY
  5
76
102
{ACAD_REACTORS
330
C
102
}
330
C
100
AcDbDictionary
281
     1
  3
COLORDICT
350
78
  3
MATERIALDICT
350
77
  0
DICTIONARY
  5
72
102
{ACAD_REACTORS
330
C
102
}
330
C
100
AcDbDictionary
281
     1
  3
DIMASSOC
350
73
  3
PROJECTNAME
350
74
  0
LAYOUT
  5
23
102
{ACAD_XDICTIONARY
360
7B
102
}
102
{ACAD_REACTORS
330
19
102
}
330
19
100
AcDbPlotSettings
  1

  2
RICOH imagio MF-P355
  4

  6

 40
0.0
 41
0.0
 42
0.0
 43
0.0
 44
0.0
 45
0.0
 46
0.0
 47
0.0
 48
0.0
 49
0.0
140
0.0
141
0.0
142
1.0
143
1.0
 70
  1712
 72
     0
 73
     0
 74
     0
  7

 75
     0
147
1.0
148
0.0
149
0.0
100
AcDbLayout
  1
Model
 70
     1
 71
     0
 10
0.0
 20
0.0
 11
12.0
 21
9.0
 12
0.0
 22
0.0
 32
0.0
 14
0.0
 24
0.0
 34
0.0
 15
0.0
 25
0.0
 35
0.0
146
0.0
 13
0.0
 23
0.0
 33
0.0
 16
1.0
 26
0.0
 36
0.0
 17
0.0
 27
1.0
 37
0.0
 76
     0
330
20
  0
LAYOUT
  5
1F
102
{ACAD_XDICTIONARY
360
79
102
}
102
{ACAD_REACTORS
330
19
102
}
330
19
100
AcDbPlotSettings
  1

  2
RICOH imagio MF-P355
  4

  6

 40
0.0
 41
0.0
 42
0.0
 43
0.0
 44
0.0
 45
0.0
 46
0.0
 47
0.0
 48
0.0
 49
0.0
140
0.0
141
0.0
142
1.0
143
1.0
 70
   688
 72
     0
 73
     0
 74
     5
  7

 75
    16
147
1.0
148
0.0
149
0.0
100
AcDbLayout
  1
配置1
 70
     1
 71
     1
 10
0.0
 20
0.0
 11
12.0
 21
9.0
 12
0.0
 22
0.0
 32
0.0
 14
1.000000000000000E+20
 24
1.000000000000000E+20
 34
1.000000000000000E+20
 15
-1.000000000000000E+20
 25
-1.000000000000000E+20
 35
-1.000000000000000E+20
146
0.0
 13
0.0
 23
0.0
 33
0.0
 16
1.0
 26
0.0
 36
0.0
 17
0.0
 27
1.0
 37
0.0
 76
     0
330
1C
  0
MLINESTYLE
  5
17
102
{ACAD_REACTORS
330
16
102
}
330
16
100
AcDbMlineStyle
  2
STANDARD
 70
     0
  3

 62
   256
 51
90.0
 52
90.0
 71
     2
 49
0.5
 62
   256
  6
BYLAYER
 49
-0.5
 62
   256
  6
BYLAYER
  0
ACDBPLACEHOLDER
  5
F
102
{ACAD_REACTORS
330
E
102
}
330
E
  0
XRECORD
  5
78
102
{ACAD_REACTORS
330
76
102
}
330
76
100
AcDbXrecord
280
     1
340
1B
  0
XRECORD
  5
77
102
{ACAD_REACTORS
330
76
102
}
330
76
100
AcDbXrecord
280
     1
340
1A
  0
DICTIONARYVAR
  5
73
102
{ACAD_REACTORS
330
72
102
}
330
72
100
DictionaryVariables
280
     0
  1
1
  0
DICTIONARYVAR
  5
74
102
{ACAD_REACTORS
330
72
102
}
330
72
100
DictionaryVariables
280
     0
  1

  0
DICTIONARY
  5
7B
330
23
100
AcDbDictionary
280
     1
281
     1
  3
ACAD_XREC_ROUNDTRIP
360
7C
  0
DICTIONARY
  5
79
330
1F
100
AcDbDictionary
280
     1
281
     1
  3
ACAD_XREC_ROUNDTRIP
360
7A
  0
XRECORD
  5
7C
102
{ACAD_REACTORS
330
7B
102
}
330
7B
100
AcDbXrecord
280
     1
102
SHADEPLOT
 70
     0
102
SHADEPLOTRESLEVEL
 70
     2
102
SHADEPLOTCUSTOMDPI
 70
   300
  0
XRECORD
  5
7A
102
{ACAD_REACTORS
330
79
102
}
330
79
100
AcDbXrecord
280
     1
102
SHADEPLOT
 70
     0
102
SHADEPLOTRESLEVEL
 70
     2
102
SHADEPLOTCUSTOMDPI
 70
   300
  0
ENDSEC
  0
EOF
